PrimaNota.ru - самый крупный в мире бесплатный архив песенных текстов, аккордов, табулатур и нот


Misc - Deadly Seasons - таба, видео

Регистрация Запомнить меня
Войти через:  Facebook Google Twitter Vk Yandex Mail.ru

Misc - Deadly Seasons - таба, видео

Печатать
Просмотров: 72
-------------------------------------------------------------------------------
                             Deadly Seasons - Misc
-------------------------------------------------------------------------------
Tabbed by:
E-mail:

Tuning: Standard (EBGDAE)
Into
e|---3--------------------------------4-3---------------3-----3-----------|
B|---3------------------------------4-4-3-------------3---3---3-----------|
G|---0----------------------------3---0-0-----------0-------0-0-----------|
D|-----2-----------2----3-----------------4-2-------------------2---------|
A|-2-----2-1---2-3--------2-1---2-------------4-5-2---------------2-1---2-|
E|-0---------3-0-----2b-------3-0-----------------0-------------------3-0-|

just before verse                                  harmonics
e|-------0-------------0-----------------------------7----------------------------------|
B|---------3-------------3-------------------------------7------------------------------|
G|-----------0-------------0---------------4~-----7~---------7--------------------------|
D|-----4-------4-----4-------4-----5-----5-----------------------/7-5---5---------------|
A|-2-2-----------2/5-----------5/6---6\3------5/8---------------------7---7-6-5---------|
E|-0----------------------------------------------------------------------------8-5\\---|

Verse
e|----------------------------------------|   |-------------|
B|----------------------------------------|   |-------------|
G|----------------------------------------|   |-------------|
D|------------------------------------2-3-|   |-------------|
A|-------2--------2--------2--------2-0-1-|   |-------2-7-5-|
E|-00000-0--00000-0--00000-0--00000-0-----|x4 |-00000-0-5-3-|x1
PM *****    *****    *****    *****

Chorus
e|-----------------------------------------------------------------------------------------------|
B|-----------------------------------------------------------------------------------------------|
G|-------5----------------------------------------------------------9----8-----------------------|
D|-2-7-6-5-------------------------6-5-9-8-----9--------8---------9-9----8-----------------------|
A|-2-7-6-3-3h5p3h5p3h5p3h6p3h6p3h6-6-5-9-8---9---9----8---8-----9---7----6-------------------3-2-|
E|-0-5-4---------------------------4-3-7-6-7-------/6--------/7-------00---7-5-4-6-4-3-4-3-1-1-0-|
Heavy Palm mute                                                            * * * * * * * * *


************************************

| /   slide up
| \   slide down
| h   hammer-on
| p   pull-off
| ~   vibrato
| +   harmonic
| x   Mute note
| b   Bend
| pb  Pre-bend
| br  Bend release
| pbr Pre-bend release
| brb Bend release bend

************************************
Добавлено: 03.11.2015
Другие материалы по этой песне:
  • Аккорды и текст

Страница создана 03.11.2015
http://primanota.ru/misc/deadly-seasons-chords.htm
Привет, Гость.
Предлагаем пройти революционный курс по гитаре.
Подарок от PrimaNota.Ru, забирай!