PrimaNota.ru - самый крупный в мире бесплатный архив песенных текстов, аккордов, табулатур и нот


Misc - Davy Jones Plays His Organ - таба, видео

Регистрация Запомнить меня
Войти через:  Facebook Google Twitter Vk Yandex Mail.ru

Misc - Davy Jones Plays His Organ - таба, видео

Печатать
Просмотров: 115
Davy Jones Plays His Organ

Arranged for 2 guitars and bass


Dramatically, with freedom
    S  S  S S  H        E.  S    H    E. S     H.                     
e|-10-12-10-9-10------(10)-----|------------|------------------------|
h|-------------------------10--|-3---(3)----|------------------------|
G|-----------------------------|------------|------------------------|
D|-----------------------------|---------7--|--0---------------------|
A|-----------------------------|------------|------------------------|
E|-----------------------------|------------|------------------------|
    S  S  S S  H        E.  S    H    E. S     H        E.        S   
e|-----------------------------|------------|------------------------|
h|-----------------------------|------------|------------------------|
G|-----------------------------|------------|------------------------|
D|--0--2--0----0-------(0)--7--|-0---(0)----|------------------------|
A|----------4------------------|---------0--|---------------------0--|
E|-----------------------------|------------|------------------------|
                                               H        E.               
G|-----------------------------|------------|------------------------|
D|-----------------------------|------------|--0-------(0)-----------|
A|-----------------------------|------------|------------------------|
E|-----------------------------|------------|------------------------|

Quickly
                                 H       Q      H       Q     
e|--------------|--------------|---------0----|-1-------3----|
h|--------------|--------------|-3------------|--------------|
G|--------------|--------------|--------------|--------------|
D|--------------|--------------|--------------|--------------|
A|--------------|--------------|--------------|--------------|
E|--------------|--------------|--------------|--------------|
   E E E E E E    E E E E E E    E E E E E E    E E E E E E   
e|--------------|--------------|--------------|--------------|
h|--------------|--------------|--------------|--------------|
G|--------------|-------2-0----|--------------|--------------|
D|-0-2-0-2-3-2--|-0-2-3-----2--|-0-2-0-2-3-2--|-0-2-0-2-3-2--|
A|--------------|--------------|--------------|--------------|
E|--------------|--------------|--------------|--------------|



   H      S Q     H       Q      H        Q     H       Q     
e|-5------8p6---|-5------------|-5--------6---|-8------10----|
h|--------------|---------3----|--------------|--------------|
G|--------------|--------------|--------------|--------------|
D|--------------|--------------|--------------|--------------|
A|--------------|--------------|--------------|--------------|
E|--------------|--------------|--------------|--------------|
   E E E E E E    E E E E E E    E E E E E E    E E E E E E   
e|--------------|--------------|--------------|--------------|
h|--------------|--------------|--------------|--------------|
G|--------------|-------2-0----|--------------|--------------|
D|-0-2-0-2-3-2--|-0-2-3-----2--|-0-2-0-2-3-2--|-0-2-0-2-3-2--|
A|--------------|--------------|--------------|--------------|
E|--------------|--------------|--------------|--------------|


   H       Q      H.             H       Q      H       Q     
e|--------------|-5------------|-6-------8----|-5------------|
h|10-------8----|--------------|--------------|---------6----|
G|--------------|--------------|--------------|--------------|
D|--------------|--------------|--------------|--------------|
A|--------------|--------------|--------------|--------------|
E|--------------|--------------|--------------|--------------|
   E E E E E E    E E E E E E    E E E E E E    E E E E E E   
e|--------------|--------------|--------------|--------------|
h|--------------|--------------|--------------|--------------|
G|--------------|-------2-0----|-0---0---0----|-----------2--|
D|-0-2-0-2-3-2--|-0-2-3-----2--|---3---0---2--|-3-2-3-0-3----|
A|--------------|--------------|--------------|--------------|
E|--------------|--------------|--------------|--------------|


   H       Q      H       Q      H       Q      H       Q     
e|-3-------5----|-1------------|-0------------|---------0----|
h|--------------|---------3----|---------1----|--------------|
G|--------------|--------------|--------------|-2------------|
D|--------------|--------------|--------------|--------------|
A|--------------|--------------|--------------|--------------|
E|--------------|--------------|--------------|--------------|
   E E E E E E    E E E E E E    E E E E E E    E E E E E E   
e|--------------|--------------|--------------|--------------|
h|--------------|--------------|--------------|--------------|
G|--------------|-------2-0----|--------------|--------------|
D|-2-0-2-0-3-2--|-0-2-3-----2--|---2---2---2--|---2---2---2--|
A|--------------|--------------|-3---0---3----|-3---0---3----|
E|--------------|--------------|--------------|--------------|


   H.             H       Q      H        Q     H        Q    
e|--------------|--------------|/7--------9---|10-------12---|
h|-3------------|-3-------2----|--------------|--------------|
G|--------------|--------------|/4--------6---|-7--------9---|
D|--------------|--------------|--------------|--------------|
A|--------------|--------------|--------------|--------------|
E|--------------|--------------|--------------|--------------|
   E E E E E E    E E E E E E          H              H         
e|--------------|--------------|--------------|--------------|
h|--------------|--------------|--------------|--------------|
G|--------------|-------2-0----|--------------|--------------|
D|-0-2-0-2-3-2--|-0-2-3-----2--|--------------|--------------|
A|--------------|--------------|-------2------|-------2------|
E|--------------|--------------|(0)-----------|(0)-----------|
                                 H.    H        H.    H           
G|--------------|--------------|-------4------|-------4------|
D|--------------|--------------|-4------------|-4------------|
A|--------------|--------------|-2------------|-2------------|
E|--------------|--------------|--------------|--------------|


   H        Q     H        Q     H        Q     H        Q     H        Q    
e|14-------15---|14------------|14-------15---|17-------19---|14-------12---|
h|--------------|---------12---|--------------|--------------|--------------|
G|11-------12---|11------------|11-------12---|14-------16---|11--------9---|
D|--------------|--------------|--------------|--------------|--------------|
A|--------------|--------------|--------------|--------------|--------------|
E|--------------|--------------|--------------|--------------|--------------|
         H              H              H              H              H        
e|--------------|--------------|--------------|--------------|--------------|
h|--------------|--------------|--------------|--------------|--------------|
G|--------------|--------------|--------------|--------------|--------------|
D|--------------|--------------|--------------|--------------|--------------|
A|-------2------|-------2------|-------2------|-------2------|-------2------|
E|(0)-----------|(0)-----------|(0)-----------|(0)-----------|(0)-----------|
   H.    H        H.    H        H.    H        H.    H        H.    H        
G|-------4------|-------4------|-------4------|-------4------|-------4------|
D|-4------------|-4------------|-4------------|-4------------|-4------------|
A|-2------------|-2------------|-2------------|-2------------|-2------------|
E|--------------|--------------|--------------|--------------|--------------|


   H.             H        Q     H        Q     H        Q     H        Q    
e|14------------|15-------17---|14-------10---|12-------14---|10--------7---|
h|--------------|--------------|--------------|--------------|--------------|
G|11------------|12-------14---|11--------7---|-9-------11---|-7--------4---|
D|--------------|--------------|--------------|--------------|--------------|
A|--------------|--------------|--------------|--------------|--------------|
E|--------------|--------------|--------------|--------------|--------------|
         H              H              H              H              H       
e|--------------|--------------|--------------|--------------|--------------|
h|--------------|--------------|--------------|--------------|--------------|
G|--------------|--------------|--------------|--------------|--------------|
D|--------------|--------------|--------------|--------------|--------------|
A|-------2------|-------2------|-------2------|-------2------|-------2------|
E|(0)-----------|(0)-----------|(0)-----------|(0)-----------|(0)-----------|
   H.    H        H.    H        H.    H        H.    H        H.    H      
G|-------4------|-------4------|-------4------|-------4------|-------4------|
D|-4------------|-4------------|-4------------|-4------------|-4------------|
A|-2------------|-2------------|-2------------|-2------------|-2------------|
E|--------------|--------------|--------------|--------------|--------------|


   H        Q     Q   Q   E E    Q                            
e|-9--------5---|-----5---7-9--|10------------|--------------|
h|--------------|-7------------|--------------|--------------|
G|-6--------2---|-----2---5-6--|-7------------|--------------|
D|--------------|-4------------|--------------|--------------|
A|--------------|--------------|--------------|--------------|
E|--------------|--------------|--------------|--------------|
         H        Q   E E E E    Q   Q          Q   Q         
e|--------------|--------------|--------------|--------------|
h|--------------|--------------|--------------|--------------|
G|--------------|--------------|--------------|--------------|
D|--------------|--------------|-0---0--------|-0---0--------|
A|-------2------|-----0--------|-0---0--------|-0---0--------|
E|(0)-----------|(0)----3-1-0--|--------------|--------------|
   H.    H        Q   E E E E    Q   Q          Q   Q         
G|-------4------|-----2-0------|--------------|--------------|
D|-4------------|-4-------3-2--|-0---0--------|-0---0--------|
A|-2------------|-2------------|--------------|--------------|
E|--------------|--------------|--------------|--------------|


                  H      Q       H      Q       H      Q      
e|--------------|10-----12-----|13-----15-----|17-----18-----|
h|--------------|--------------|--------------|18-----20-----|
G|--------------|-7------9-----|10-----12-----|14-----15-----|
D|--------------|--------------|--------------|--------------|
A|--------------|--------------|--------------|--------------|
E|--------------|--------------|--------------|--------------|
   Q   Q  E  E    Q   Q  E  E    Q   Q  E  E    Q   Q  E  E   
e|--------------|--------------|--------------|--------------|
h|--------------|--------------|--------------|--------------|
G|--------------|--------------|--------------|--------------|
D|-0---0--------|-0---0--------|-0---0--------|-0---0--------|
A|-0---0--------|-0---0--------|-0---0--------|-0---0--------|
E|--------1--0--|--------1--0--|--------1--0--|--------1--0--|
   Q   Q          Q   Q  E  E    Q   Q  E  E    Q   Q  E  E   
G|--------------|-7---7--------|-7---7--------|-7---7--------|
D|-0---0--------|-7---7--3--2--|-7---7--3--2--|-7---7--3--2--|
A|--------------|-5---5--------|-5---5--------|-5---5--------|
E|--------------|--------------|--------------|--------------|


   H      Q       H      Q       H      Q       H      Q      
e|17------------|17-----18-----|20-----22-----|17-----15-----|
h|18-----15-----|--------------|--------------|--------------|
G|14------------|14-----15-----|17-----19-----|14-----12-----|
D|--------------|--------------|--------------|--------------|
A|--------------|--------------|--------------|--------------|
E|--------------|--------------|--------------|--------------|
   Q   Q  E  E    Q   Q  E  E    Q   Q  E  E    Q   Q  E  E   
e|--------------|--------------|--------------|--------------|
h|--------------|--------------|--------------|--------------|
G|--------------|--------------|--------------|--------------|
D|-0---0--------|-0---0--------|-0---0--------|-0---0--------|
A|-0---0--------|-0---0--------|-0---0--------|-0---0--------|
E|--------1--0--|--------1--0--|--------1--0--|--------1--0--|
   Q   Q          Q   Q  E  E    Q   Q  E  E    Q   Q  E  E   
G|-7---7--------|-7---7--------|-7---7--------|-7---7--------|
D|-7---7--3--2--|-7---7--3--2--|-7---7--3--2--|-7---7--3--2--|
A|-5---5--------|-5---5--------|-5---5--------|-5---5--------|
E|--------------|--------------|--------------|--------------|


   H.             H      Q       H      Q       H      Q      
e|17------------|18-----20-----|17-----13-----|15-----17-----|
h|--------------|--------------|--------------|--------------|
G|14------------|15-----17-----|14-----10-----|12-----14-----|
D|--------------|--------------|--------------|--------------|
A|--------------|--------------|--------------|--------------|
E|--------------|--------------|--------------|--------------|
   Q   Q  E  E    Q   Q  E  E    Q   Q  E  E    Q   Q  E  E   
e|--------------|--------------|--------------|--------------|
h|--------------|--------------|--------------|--------------|
G|--------------|--------------|--------------|--------------|
D|-0---0--------|-0---0--------|-0---0--------|-0---0--------|
A|-0---0--------|-0---0--------|-0---0--------|-0---0--------|
E|--------1--0--|--------1--0--|--------1--0--|--------1--0--|
   Q   Q          Q   Q  E  E    Q   Q  E  E    Q   Q  E  E   
G|-7---7--------|-7---7--------|-7---7--------|-7---7--------|
D|-7---7--3--2--|-7---7--3--2--|-7---7--3--2--|-7---7--3--2--|
A|-5---5--------|-5---5--------|-5---5--------|-5---5--------|
E|--------------|--------------|--------------|--------------|

                                               Freely
   H      Q       H      Q       E  E  E  E     W            
e|13-----10-----|12------8-----|10-12-13-17--|-19-----------|
h|--------------|--------------|-------------|-19-----------|
G|10------7-----|-9------5-----|-7--9-10-14--|-19-----------|
D|--------------|--------------|-------------|-21-----------|
A|--------------|--------------|-------------|--------------|
E|--------------|--------------|-------------|--------------|
   Q   Q  E  E    Q   Q  E  E    Q     Q       H             
e|--------------|--------------|-------------|--------------|
h|--------------|--------------|-------------|--------------|
G|--------------|--------------|-------------|--------------|
D|-0---0--------|-0---0--------|-0-----0-----|--------------|
A|-0---0--------|-0---0--------|-0-----0-----|-2------------|
E|--------1--0--|--------1--0--|-------------|-2------------|
   Q   Q          Q   Q  E  E    Q     Q       H             
G|-7---7--------|-7---7--------|-7-----7-----|--------------|
D|-7---7--3--2--|-7---7--3--2--|-7-----7-----|-0------------|
A|-5---5--------|-5---5--------|-5-----5-----|-2------------|
E|--------------|--------------|-------------|--------------|


   H        H     H        H     H          (E) E    W            
e|19-------18---|19-------14---|18----------18-19-|-15-----------|
h|19-------17---|19-------15---|19----------19----|-17-----------|
G|19-------18---|19-------16---|20----------20-16-|-16-----------|
D|21-------19---|21-------15---|22----------22----|-17-----------|
A|--------------|--------------|------------------|--------------|
E|--------------|--------------|------------------|--------------|
   H              H              E S S S S S S      W             
e|--------------|--------------|------------------|--------------|
h|--------------|--------------|------------------|--------------|
G|--------------|--------------|------------------|--------------|
D|--------------|--------------|-1----------------|-2------------|
A|-4------------|-4------------|---3-2-0----------|-2------------|
E|-2------------|-2------------|---------3-2-0----|--------------|
   W              W              E              Q   W             
G|--------------|--------------|------------------|-0------------|
D|-0------------|-0------------|-1--------------0-|-2------------|
A|--------------|--------------|------------------|--------------|
E|--------------|--------------|------------------|--------------|
Добавлено: 06.12.2013
Другие материалы по этой песне:
  • Аккорды и текст

Страница создана 06.12.2013
http://primanota.ru/misc/davy-jones-plays-his-organ-chords.htm
Привет, Гость.
Предлагаем пройти революционный курс по гитаре.
Подарок от PrimaNota.Ru, забирай!