PrimaNota.ru - самый крупный в мире бесплатный архив песенных текстов, аккордов, табулатур и нот


Misc - coberco - текст песни

Регистрация Запомнить меня
Войти через:  Facebook Google Twitter Vk Yandex Mail.ru

Misc - coberco - текст песни

Печатать
Просмотров: 62
Song:Zij haat me
Artist:Coberco
Transcribed:Jorrit van Leusden

I made this song for coberco and I hope it is a good one 

Soon the lyrics will be on mxtabs.net too!

Main Riff:Use The Chord Positions Above To Make It Easier

There is one thing I want to tell you before you guys play this tab : "Mark Schrijver is a GAY" 
 E A F B5
e--------------------------------
b--------------------------------
g----1------6-------3-------4------
d---------------------------4---4--
a---------------------------2-2---4
e--0--0---5--5----2---2------------

This is played at the end of the riffs in the verses
e---------------------
b---------------------
g----4-4-4-h-6-p-4----
d---------------------
a---------------------
e--------------------- h=hammer on p=pulloff

Other verse riff

e---------------------------------------------
b---------------------------------------------
g------------2-2-2-2-----------4-4-4-4--------
d---2-2-2-2--2-2-2-2--4-4-4-4--4-4-4-4--------
a---2-2-2-2--0-0-0-0--4-4-4-4--2-2-2-2--------
e---0-0-0-0-----------2-2-2-2-----------------
 --------ALL PALM MUTED-------

The Chorus is the same just not palm muted.

This solo isn't quite right but the wah used should cover it up

e-----------------------------------------------------------------
b-----------------------------------------------------------------
g---14-14-14-14-19-19-19-19-16-19-16-19/21-21-21-21---------------
d-----------------------------------------------------------------
a-----------------------------------------------------------------
e-----------------------------------------------------------------
 
e---12-12-12-12-17-17-17-17-14-17-14-17/19-19-19-19---------------
b-----------------------------------------------------------------
g-----------------------------------------------------------------
d-----------------------------------------------------------------
a-----------------------------------------------------------------
e-----------------------------------------------------------------

Well this is it .. It is 100 % correct!
Добавлено: 03.12.2013
Другие материалы по этой песне:
  • Текст (слова)

Страница создана 03.12.2013
http://primanota.ru/misc/coberco-lyrics.htm
Привет, Гость.
Предлагаем пройти революционный курс по гитаре.
Подарок от PrimaNota.Ru, забирай!