PrimaNota.ru - самый крупный в мире бесплатный архив песенных текстов, аккордов, табулатур и нот


Misc - christmas - текст песни, видео

Регистрация Запомнить меня
Войти через:  Facebook Google Twitter Vk Yandex Mail.ru

Misc - christmas - текст песни, видео

Печатать
Просмотров: 75
Ok, give this a shot, amuse your family around the dinner table at christmas,
maybe everyone will break into chorus and you'll actually bond *god forbid*

Hark The Herald Angels Sing
 -=Chrismas Song=-

God, I *HOPE* you can figure out the timing to this song...

e]--------------------------|--------------------------[
B]--------------------------|--------------------------[
G]--------------------------|--------------------------[
D]-----0--0-----0--4--4--2--|--7--7--7-----5--4--2--4--[
A]--0--------4--------------|--------------------------[
E]--------------------------|--------------------------[

e]--------------------------|--------------------------[
B]--------------------------|--------------------------[
G]--------------------------|--------------------------[
D]-----0--0-----0--4--4--2--|--7--2--2-----0-----------[
A]--0--------4--------------|-----------------4--2--0--[
E]--------------------------|--------------------------[

e]--------------------------|--------------------------[
B]--------------------------|--------------------------[
G]--------------------------|--------------------------[
D]--7--7--7--0--5--4--4--2--|--7--7--7--0--5--4--4--2--[
A]--------------------------|--------------------------[
E]--------------------------|--------------------------[

e]--------------------------|--------------------------[
B]--------------------------|--------------------------[
G]--------------------------|--------------------------[
D]--9-----9--9--7--5--4--5--|--2--4--5--7--0--0--2--4--[
A]--------------------------|--------------------------[
E]--------------------------|--------------------------[

e]--------------------------|--------------------------[
B]--------------------------|--------------------------[
G]--------------------------|--------------------------[
D]--9-----9--9--7--5--4--5--|--2--4--5--7--0--0--2--0--[
A]--------------------------|--------------------------[
E]--------------------------|--------------------------[

If this is too low for your tastes, just move up a string; I have a lower
voice, tend to sing the song better this way...
Добавлено: 18.01.2014
Другие материалы по этой песне:
  • Текст (слова)

Страница создана 18.01.2014
http://primanota.ru/misc/christmas-lyrics.htm
Привет, Гость.
Предлагаем пройти революционный курс по гитаре.
Подарок от PrimaNota.Ru, забирай!