PrimaNota.ru - самый крупный в мире бесплатный архив песенных текстов, аккордов, табулатур и нот


Misc - cbut - текст песни, видео

Регистрация Запомнить меня
Войти через:  Facebook Google Twitter Vk Yandex Mail.ru

Misc - cbut - текст песни, видео

Печатать
Просмотров: 72
Уроки эстрадного вокала в Санкт-Петербурге
play with heave distortion 
the timing is weak - weak - strong in the first bar
e|-----------------------------------------------------------------|
B|-----------------------------------------------------------------|
G|-----------------------------------------------------------------|
D|-----------------------------------------------------------------|
A|------5-7-----5-7-----5-7-----5-7-----3-5-----3-5-----3-5-----3-5|
E|----5---5---5---5---5---5---5---5---3---3---3---3---3---3---3---3|

e|-----------------------------------------------------------------|
B|-----------------------------------------------------------------|
G|-------------------------------7---7---7---7---------------------|
D|-----7---7---7---7-----------------------------------------------|
A|---5---5---5---5----7-7-5----5---5---5---5----5-5-7--------------|
E|--------------------5-5-3---------------------3-3-5--------------|

e|-----------------------------------------------------------------|
B|-----------------------------------------------------------------|
G|-----------------------------------------------------------------|
D|-----------------------------------------------------------------|
A|-----4-5-4-----4-5-4-----2-3-2-----2-3-2-----4-5-4--7~~~~~-------|
E|---5---5-----5---5-----3---3-----3---3-----5---5----5~~~~~-------|
Добавлено: 01.08.2013
Другие материалы по этой песне:
  • Текст (слова)

Страница создана 01.08.2013
http://primanota.ru/misc/cbut-lyrics.htm
Привет, Гость.
Предлагаем пройти революционный курс по гитаре.
Подарок от PrimaNota.Ru, забирай!