PrimaNota.ru - самый крупный в мире бесплатный архив песенных текстов, аккордов, табулатур и нот


Misc - Bluesrock Riff - таба, видео

Регистрация Запомнить меня
Войти через:  Facebook Google Twitter Vk Yandex Mail.ru

Misc - Bluesrock Riff - таба, видео

Печатать
Просмотров: 62
Tabbed by: Jeromie Adams
Email:jwadams81777@yahoo.com
x=palm mute
/=slide
h=hammer on
p=pull off
*=hold note 

Just a little riff I like to play I think it can be used in many situations. Simple and fun.
Please add to it or give input on it.. Thanks..


e:|---------------------------------------------------------------------------------------------|
b:|---------------------------------------------------------------------------------------------|
g:|---------------------------------------------------7-x-7-7*---------7-----7-x-7-7*---------7-|
d:|-----7-x-7-7*---------7-----7-x-7-7*---------7-----7-x-7-7*-----7h9-------7-x-7-7*-----7h9---|
a:|-----7-x-7-7*-----7h9-------7-x-7-7*-----7h9-------5-x-5-5*---7-----------5-x-5-5*---7-------|
e:|-----5-x-5-5*---7-----------5-x-5-5*---7-----------------------------------------------------|


e:|---------------------------------------------------------------------------------------------|
b:|---------------------------------------------------------------------------------------------|
g:|---------------------------------------------------7-x-7-7*---------7-----7-x-7-7*---------7-|
d:|-----7-x-7-7*---------7-----7-x-7-7*---------7-----7-x-7-7*-----7h9-------7-x-7-7*-----7h9---|
a:|-----7-x-7-7*-----7h9-------7-x-7-7*-----7h9-------5-x-5-5*---7-----------5-x-5-5*---7-------|
e:|-----5-x-5-5*---7-----------5-x-5-5*---7-----------------------------------------------------|



e:|---------------------------------------------------------------------------------------------|
b:|---------------------------------------------------------------------------------------------|
g:|-----9-x-9-x-9*----------7-x-7-x-7*-----------------------------------------------------2----|
d:|-----9-x-9-x-9*----9-----7-x-7-x-7*-----7------7--7--7--5--5--5--4--4--4--2--2--2--5/7--2----|
a:|-----7-x-7-x-7*--7---77--5-x-5-x-5*--5----5-5--7--7--7--5--5--5--4--4--4--2--2--2--5/7--0----|
e:|-----------------------------------------------5--5--5--3--3--3--2--2--2--0--0--0--3/5-------|
Добавлено: 03.11.2015
Другие материалы по этой песне:
  • Аккорды и текст

Страница создана 03.11.2015
http://primanota.ru/misc/bluesrock-riff-chords.htm
Привет, Гость.
Предлагаем пройти революционный курс по гитаре.
Подарок от PrimaNota.Ru, забирай!