PrimaNota.ru - самый крупный в мире бесплатный архив песенных текстов, аккордов, табулатур и нот


Misc - Blues Licks - аккорды и текст, таба, видео

Регистрация Запомнить меня
Войти через:  Facebook Google Twitter Vk Yandex Mail.ru

Misc - Blues Licks - аккорды и текст, таба, видео

Печатать
Просмотров: 115
Blues Licks
Misc
		   Well,I've been pretty bored lately so I thought of making up some blues
licks and posting them here,just to give you my idea of the blues.
Of course,this is just the way I play,generally fast,so I hope you enjoy these.
Everyone has their own blues style,so this is just me.

-9~--9~---------------------------------7-|---10/12--10/12---10-7--------7~--|
-9~--9~------------------------7-9-7-9--7-|----------------------10-7--------|
---------9b-9b--9-7----7-----7------------|---------------------------7h8----|
--------------------9--7-----7------------|----------------------------------|
-------------------------8-9--------------|----------------------------------|
------------------------------------------|-0--------------------------------|

-14--11---------------14--11------11-|-----11~--------------------10-------10~-|
--------14-11-----11---------[14]----|----------12b-12bp10-----------9-----9~--|
--------------13b--------------------|-11~----------------11-11~-------10--10~-|
-------------------------------------|-----------------------------------------|
-------------------------------------|-----------------------------------------|
-------------------------------------|-----------------------------------------|

-3-0---------------3b-3b--0~--|---------------------9b--6~--------|
-----3~--0--------------------|-----6-9---6-9---6-9---------------|
-----------2/3----------------|---8-----8-------------------------|
------------------------------|-----------------------------------|
------------------------------|-----------------------------------|
----------------0-------------|-----------------------------3~--0-|

-9/12--12-12-10----12~----12-12-10----|-12-9-------------11---12-7~------12~-|
----------------12-----------------12-|------12--9-----9----9----------------|
--------------------------------------|------------11b--------------11-12----|
--------------------------------------|--------------------------------------|
--------------------------------------|--------------------------------------|
--------------------------------------|--------------------------------------|

-10-10-10-10-10-10--9--9--9---8--8--8--7-|-----------5~-------5~-------5/7-3-|
-12-12-12-12-12-12--11-11-11--10-10-10-8-|-----------------------------------|
-----------------------------------------|--------------0h3p0----0h3p0-------|
-----------------------------------------|-4---3---2-------------------------|
-----------------------------------------|-----------------------------------|
-----------------------------------------|-----------------------------------|

-0-2-0-------------------6--3~--1-3~-|------------------------------|
-------2-0-2-------------------------|-7~-7h9p7-----7h9p7-----------|
------------------0-3~-0-------------|----------8---------8---------|
-------------------------------------|------------9---------9-------|
-------------------------------------|------------------------10-7--|
-------------3b-0--------------------|------------------------------|

---------2--3~---3~~--0-----------0-------|
---------1--2~-----------3~~~-------------|
---------2--3~----------------------------|
------------------------------------------|
------------------------------------------|
-3b--0-------------------------------(0)--|     
Добавлено: 18.08.2013
Другие материалы по этой песне:
  • Аккорды и текст

Страница создана 07.03.2012
http://primanota.ru/misc/blues-licks-chords.htm
Привет, Гость.
Предлагаем пройти революционный курс по гитаре.
Подарок от PrimaNota.Ru, забирай!