PrimaNota.ru - самый крупный в мире бесплатный архив песенных текстов, аккордов, табулатур и нот


Misc - Black Orpheus - таба

Регистрация Запомнить меня
Войти через:  Facebook Google Twitter Vk Yandex Mail.ru

Misc - Black Orpheus - таба

Печатать
Просмотров: 107
Black Orpheus (Morning of the Carnival)
Tab submitted by: Harold Schaefer
Email: schaefeh_19440@yahoo.com

Tuning: Standard

Intro:
         Fmaj7          Em        Dm7     Cmaj7     Adim     E7
e|-----|--------------|--------|-----------------|------------------------|
B|---0-|----1---3--1--|-0----0-|-1--3-1---0----0-|--1---3-1----0h1p0------|
G|-2---|---2----------|-0---2--|-2--------0---2--|--2--------1-------2-1--|
D|-----|--3-----------|-2------|-0--------2------|--1--------0------------|
A|-----|-3------------|-2------|----------3------|--0--------2------------|
E|-----|--------------|-0------|-----------------|-----------0------------|

    Am    B0     E7          
e|------0----|-----0------0--|       
B|----1--1---|--3------0-----|       
G|----2---2--|--2------1-----| 4x    
D|----2------|--3------0-----|       
A|--0--------|--2------2-----|       
E|-----------|---------------|       

Verse:
     Am7      Bm7          Am    B0    E7
e|----8--7--5--5--|--4--7--0--|-----0----0--|
B|-5--5--------5--|--------1--|---3----0----|
G|----5--------7--|--4--7--2--|---2----1----|
D|----5--------5--|--------2--|---3----0----|
A|----7--------5--|--------0--|---2----2----|
E|----5--------7--|--0--------|--------0----|

      Am      Dm     G7     Cmaj7    E0              Dm        G 
e|----8--7-5--5---|--3-5/7---3---|---3--|--0-1-3--|--5------|------------|
B|-5--5-------6---|--3-------5---|---2--|---------|--6------|--3--3-5-6--|
G|----5-------7---|--4-------4---|---3--|---------|--7---7--|--4---------|
D|----5-------7---|--5-------5---|---2--|---------|--7---7--|--5---------|
A|----7-------5---|--5-------3---|------|--0------|--5------|--5---------|
E|----5-----------|--3-----------|------|---------|---------|--3---------|

   Cmaj7     Fmaj7         B0       E7            Am      B0    E7
e|-3------|----------0--|--1-----|--0----------|--0----|----0-----0--|
B|-5------|--1---1-3----|--0--0--|--0---0-1-3--|--1----|--3-----0----|
G|-4---5--|--2----------|--1-----|--1----------|--2----|--2-----1----|
D|-5------|--2----------|--0-----|--0----------|--2----|--3-----0----|
A|-3------|-------------|--------|--2----------|--0----|--2-----2----|
E|--------|--1----------|--------|--0----------|-------|--------0----|

      Am7      Bm7          Am    B0    E7
e|-----8--7--5--5--|--4--7--0--|-----0----0--|
B|--5--5--------5--|--------1--|---3-----0---|
G|-----5--------7--|--4--7--2--|---2-----1---|
D|-----5--------5--|--------2--|---3-----0---|
A|-----7--------5--|--------0--|---2-----2---|
E|-----5--------7--|--0--------|---------0---|

       G0      A7          Dm  Dmaj7  Dm7    B0           B0  
e|-----6--5-3--3---|--1-0--5---5------5---|-----|----0-1--7--|
B|--5--5-------2---|-------6---6------6---|--3--|--3------6--|
G|-----6-------2---|-------7---6------5---|--2--|---------7--|
D|-----5-------2---|-------7---7------7---|--3--|---------6--|
A|-------------0---|-------5---5------5---|--2--|------------|
E|-----------------|----------------------|-----|------------|

    Am            Fmaj7         B0    E7           Am    B0  E7  
e|----------0--|--5-----|--4----0--|--0---0--4--7--0--|----0---0--|
B|--1---1-3----|--5-----|--3----3--|--0------------1--|--3---0----|
G|--2----------|--5-----|--4----2--|--1---1--4--7--2--|--2---1----|
D|--2----------|--3-----|--3----3--|--0------------2--|--3---0----|
A|--0----------|--------|-------2--|--2------------0--|--2---2----|
E|-------------|--------|-----0----|--0---------------|-----------|

Outro:
        Dm7        Am9              Dm7         Em        Adim      E7
e|-5-7--8--10-8--|-7---5-7--|--5-7--8--10-8--|--7--|--5-7--8--10-8--7--|
B|------6--------|-5--------|-------6--------|--8--|-------7--------9--|
G|------5--------|-5--------|-------5--------|--9--|-------8--------7--|
D|------7--------|-5--------|-------7--------|--9--|-------7--------9--|
A|------5--------|-0--------|-------5--------|--7--|----------------7--|
E|---------------|----------|----------------|-----|-------------------|

                       Am7
e|--5--4--5----------------5--|
B|---------5--------------5---|
G|----------5-4-2--------5----|
D|---------------2------5-----|
A|----------------3-2--0------|
E|----------------------------|
Добавлено: 02.03.2016
Другие материалы по этой песне:
  • Аккорды и текст

Страница создана 02.03.2016
http://primanota.ru/misc/black-orpheus-chords.htm
Привет, Гость.
Предлагаем пройти революционный курс по гитаре.
Подарок от PrimaNota.Ru, забирай!