PrimaNota.ru - самый крупный в мире бесплатный архив песенных текстов, аккордов, табулатур и нот


Misc - Bass Warm-ups - бас-таба, видео

Регистрация Запомнить меня
Войти через:  Facebook Google Twitter Vk Yandex Mail.ru

Misc - Bass Warm-ups - бас-таба, видео

Печатать
Просмотров: 122
DO THIS SHIT DON'T NEGLECT IT
I KNOW YOU WANT TO
FUCKING DON'T, I SWEAR
YOU GONNA REGRET IT

Finger exercise one: Index, middle, pinky,
G)-------------------1-2-4--------------------------------------------|
D)-------------1-2-4-------1-2-4--------------------------------------|
A)-------1-2-4-------------------1-2-4--------------------------------|
E)-1-2-4-------------------------------1-2-4--------------------------|

Finger exercise two: Index, ring, pinky
G)-------------------1-3-4--------------------------------------------|
D)-------------1-3-4-------1-3-4--------------------------------------|
A)-------1-3-4-------------------1-3-4--------------------------------|
E)-1-3-4-------------------------------1-3-4--------------------------|

String crossing exercise

G)-------4-----------5-----------6--------------------------------------|
D)-----3---3-------4---2-------5---5---Keep going up the neck like that-|
A)---2-------2---3-------3---4------------------------------------------|
E)-1-----------2-----------3--------------------------------------------|

E Major Scale

G)----------------------------------------------------------------------|
D)-------------1-2------------------------------------------------------|
A)-------0-2-4-----4-2-0------------------------------------------------|
E)-0-2-4-----------------4-2-0------------------------------------------|
Добавлено: 02.09.2013
Другие материалы по этой песне:
  • Аккорды и текст

Страница создана 02.09.2013
http://primanota.ru/misc/bass-warm-ups-chords.htm
Привет, Гость.
Предлагаем пройти революционный курс по гитаре.
Подарок от PrimaNota.Ru, забирай!