PrimaNota.ru - самый крупный в мире бесплатный архив песенных текстов, аккордов, табулатур и нот


Misc - Audiowhore - Walk Away - таба, видео

Регистрация Запомнить меня
Войти через:  Facebook Google Twitter Vk Yandex Mail.ru

Misc - Audiowhore - Walk Away - таба, видео

Печатать
Просмотров: 82
title: Walk Away
artist: Audiowhore
album: We Are (Not) Alone
year: 2011
difficulty: [ 4.1 / 10.0 ]
skills req:
[alternative picking] -recommended
[muting] -must
[speed] -must
[hand synchronization] -must



tuning: Dropped D & 1/2 step down 
(Db Ab Db Gb Bb Eb) or (C# G# C# F# A# D#)



intro A
played 1x

     E  S S  S  S  E     S  S  S  S  S  S  S
eb|-------------------|-----------------------|
Bb|-------------------|-----------------------|
Gb|-------------------|-----------------------|
Db|-------------------|-----------------------|
Ab|-------------------|-----------------------|
Db|--0--0-0-13-12--0--|--0-12-13-15-13-12-13--|
   pm.  . .  .  .  .     .  .  .  .  .  .  .


     E  S S  S  S  E     S S S S S S S
eb|-------------------|-----------------|
Bb|-------------------|-----------------|
Gb|-------------------|-----------------|
Db|-------------------|-----------------|
Ab|-------------------|-----------------|
Db|--0--0-0-13-12--0--|--0-1-1-1-1-1-1--|
   pm.  . .  .  .  .     . . . . . . .


     E  S S  S  S  E     S  S  S  S  S  S  S
eb|-------------------|-----------------------|
Bb|-------------------|-----------------------|
Gb|-------------------|-----------------------|
Db|-------------------|-----------------------|
Ab|-------------------|-----------------------|
Db|--0--0-0-13-12--0--|--0-12-13-15-13-12-13--|
   pm.  . .  .  .  .     .  .  .  .  .  .  .


     E  S S  S  S  E     S S S S S S S
eb|-------------------|-----------------|
Bb|-------------------|-----------------|
Gb|-------------------|-----------------|
Db|-------------------|--0-6-7-9-7-6-7--|
Ab|-------------------|-----------------|
Db|--0--0-0-13-12--0--|-----------------|
  [pm.  . .  .  .  .]
    ^slowly release this palm mute




intro B
played 3x

     E  S S  S  S  E     S  S  S  S  S  S  S
eb|-------------------|-----------------------|
Bb|-------------------|-----------------------|
Gb|-------------------|-----------------------|
Db|--0----------------|-----------------------|
Ab|--0--0-0-13-12--0--|--0-12-13-15-13-12-12--|
Db|--0--0-0-13-12--0--|--0-12-13-15-13-12-13--|


     E  S S  S  S  E     S S S S S S S
eb|-------------------|-----------------|
Bb|-------------------|-----------------|
Gb|-------------------|-----------------|
Db|--0----------------|-----------------|
Ab|--0--0-0-13-12--0--|--0-1-1-1-1-1-1--|
Db|--0--0-0-13-12--0--|--0-1-1-1-1-1-1--|


     E  S S  S  S  E     S  S  S  S  S  S  S
eb|-------------------|-----------------------|
Bb|-------------------|-----------------------|
Gb|-------------------|-----------------------|
Db|--0----------------|-----------------------|
Ab|--0--0-0-13-12--0--|--0-12-13-15-13-12-13--|
Db|--0--0-0-13-12--0--|--0-12-13-15-13-12-13--|


     E  S S  S  S  E     S S S S S S S
eb|-------------------|-----------------|
Bb|-------------------|-----------------|
Gb|-------------------|-----------------|
Db|-------------------|--0-6-7-9-7-6-7--|
Ab|-------------------|-----------------|
Db|--0--0-0-13-12--0--|-----------------|



end intro

     Q    S S Q     S S S S S E
eb|------------------------------|
Bb|------------------------------|
Gb|------------------------------|
Db|--1----1-1--0----------2-1-0--|
Ab|--1----1-1--0----0-0-0-2-1-0--|
Db|--1----1-1--0----0-0-0-2-1-0--|
                  pm. . . . . .





Legend
==============

pm. . .      =    palm mute
Q            =    quarter note
E            =    eighth note
S            =    sixteenth note
Добавлено: 04.10.2013
Другие материалы по этой песне:
  • Аккорды и текст

Страница создана 04.10.2013
http://primanota.ru/misc/audiowhore-walk-away-chords.htm
Привет, Гость.
Предлагаем пройти революционный курс по гитаре.
Подарок от PrimaNota.Ru, забирай!