PrimaNota.ru - самый крупный в мире бесплатный архив песенных текстов, аккордов, табулатур и нот


Misc - Ashoken Farewell - таба, видео

Регистрация Запомнить меня
Войти через:  Facebook Google Twitter Vk Yandex Mail.ru

Misc - Ashoken Farewell - таба, видео

Печатать
Просмотров: 73
Please note the repeat signs; they are optional. I have included them for 
more length. Also there is left-hand fingering.

Ashokan Farewell by Jay Ungar (1946-)
Arranged by: Mr. Tabber

Tuning: EADGBE
Time: 100
Time signature: 3/4

           D                             G             Em           D       
|------9-|-10-----9-7----|-2-------0-2-|-3-----2-0---|------------|-------2--|
|---10---|------7-----10-|-----3-------|-----0-----3-|-0--3-----0-|----3-----|
|*-------|----7----------|---2---2-----|---0---------|-0------0---|-2--------|
|*-------|--0------------|-0-----------|-------------|-2----2-----|-0--------|
|--------|---------------|-------------|-------------|------------|----------|
|--------|---------------|-------------|-3-----------|-0----------|----------|
     4  3    4 1 1 3 1  4   2 1 3 1   2  4     1   4   3  4 3       1  3  2
                                         3

  Bm7        G            A             D               D/A
|-------2--|-3-----3-2--|-0---------9-|-10-----9-7----|-2-------0-2-|
|----3-----|-----0------|-----2---10--|------7-----10-|-----3-------|
|-2--------|---0--------|---2---2-----|----7----------|---2---2-----|
|-0--------|------------|-------------|--0------------|-------------|
|-2--------|------------|-0-----------|---------------|-0-----------|
|----------|-3----------|-------------|---------------|-------------|
  2  4  3    4     4 1      2 3 2 2 2    4 1 1 3 1  4   2 1 3 1   3
  1          3                                          

  G             Em           D                       A          D
|-3-----2-0---|------------|-------2----|-------2--|-------0--|------2-3-|
|-----0-----3-|-0--3-----0-|----3-------|----3-----|----2-----|-3--------|
|---0---------|-0------0---|-2----------|-2--------|-2--------|-2--------|
|-------------|-2----2-----|-0----------|-0--------|-2--------|-0--------|
|-------------|------------|------------|----------|-0--------|----------|
|-3-----------|-0----------|------------|----------|----------|----------|
  4     1   4   3  4 3       1  3  2      1  3  2    2  3       3    2 4
  3                                                  2          1

                          G            D                         Bm7
|-5--------|-10---------|-7----9-10--|-5------0---|-2-----0----|------------|
|----7-----|-------10---|-8---10-12--|-7--7-------|-----3---3--|-0-----0----|
|------7---|-----7------|-0----------|-7----------|---2--------|-----2---2--|
|-0--------|--0---------|------------|-0----------|-0----------|---0--------|
|----------|------------|------------|------------|------------|-2----------|
|----------|------------|------------|------------|------------|------------|
  1  1 1      4  1  4     1    1  1    1  4         2 1 3   3    2   3   3
                          2    2  3    4
                                       3

  A                           D          C             G
|-------------|-5-------2-0-|----2--5--|-8------10---|-7----9-10----|
|-------2-----|-----2-------|-3--------|-------------|-8---10-12----|
|-----2---2---|---2---2-----|-2--------|------9------|-0------------|
|---2-------2-|-------------|-0--------|---10--------|--------------|
|-0-----------|-0-----------|----------|-------------|--------------|
|-------------|-------------|----------|-8-----------|--------------|
    2 2 3 2 2   4 2 3 2 4 0   3  2  1    1  3 4  4     1    1  1
                1          1             2    2  3

  D                     Bm           A7           D
|-5--------|-------2--|-----10-----|-0----------|----------||
|-7--7-----|----3-----|-10------7--|-------3-2--|-^3-------||
|-7-----7--|-2--------|--7---------|-----0------|-^2------*||
|-0--------|-0--------|------------|---2--------|-^0------*||
|----------|----------|------------|-0----------|----------||
|----------|----------|--7---------|------------|----------||
  1  4  3    1  3  2     4   4  4      2   4 3     3
  4                      1                         1
  3                      1
Добавлено: 29.11.2013
Другие материалы по этой песне:
  • Аккорды и текст

Страница создана 29.11.2013
http://primanota.ru/misc/ashoken-farewell-chords.htm
Привет, Гость.
Предлагаем пройти революционный курс по гитаре.
Подарок от PrimaNota.Ru, забирай!