PrimaNota.ru - самый крупный в мире бесплатный архив песенных текстов, аккордов, табулатур и нот


Misc - Acquisition - таба, видео

Регистрация Запомнить меня
Войти через:  Facebook Google Twitter Vk Yandex Mail.ru

Misc - Acquisition - таба, видео

Печатать
Просмотров: 66
Уроки эстрадного вокала в Санкт-Петербурге
-------------------------------------------------------------------------------
                             Acquisition  - Misc
-------------------------------------------------------------------------------
Tabbed by:
E-mail:

Tuning: D Standard (DAFCGD)
Intro
D|------------------------------------------------------------------------------|
A|------------------------------------------------------------------------------|
F|------------------------------------------------------------------5/8-8-------|
C|---------------6-7----------3-2--8-7-8---------------6-7----------------------|
G|------5-4------4-5------5-4------6-5-6------5-4------4-5------3-2-3/6-6-9-8-5-|
D|-0000-3-2-0000-----0000-3-2------------0000-3-2-0000-----0000-1-0-------7-6-3-|
PM ****     ****     ****                ****     ****     **** 

Verses
D|-----------------------------------------------------------------|
A|-----------------------------------------------------------------|
F|-----------------------------------------------------------------|
C|-------------8-7-----------------------10-9----------------------|
G|-x-x-3-2-x-x-6-5---------3-x-x-6-5-x-x-8--7---------5-x-x-4-5-7\-|
D|-x-x-1-0-x-x-----3-6-3-6-1-x-x-4-3-x-x------5-8-5-8-3-x-x-2-3-5\-|
PM                 * * * *                    * * * * 

Chorus                              
D|-----------------------------------------------------------------------------------------------------------|
A|-----------------------------------------------------------------------------------------------------------|
F|----------------------9-88-----------------------------------5-66------------------------------------------|
C|-x-x-x--x-x-x--33--22------x-x-x--x-x-x--33---3------2----22------9-8-9--x-x-x--x-x-x---------10-10-10-999-|
G|-x-x-x--x-x-x--33--22-7-66-x-x-x--x-x-x--33-----3------2~-22-3-44-7-6-7--x-x-x--x-x-x-777-888--------------|
D|-x-x-x--x-x-x--11--00------x-x-x--x-x-x--11-1------1------00------7-6-7--x-x-x--x-x-x----------------------|
PM                                                                                      *** *** ** ** ** ***

(tremelo picking)
D|-----------------------------------------------------------------------------------|
A|-----------------------------------------------------------------------------------|
F|-----------------------------------------------------------------------------------|
C|-------------777-666---------------------------------777-666---------------------2-|
G|-555-777-888---------888-777-555---------555-777-888---------888-777-555---------2-|
D|---------------------------------666-777---------------------------------333-111-0-|
PM *** *** *** *** *** *** *** *** *** *** *** *** *** *** *** *** *** *** *** *** 

Chunky (fade out) Heavy palm muting played real fast
D|---------------------------------------------------------------------------------------------------|
A|---------------------------------------------------------------------------------------------------|
F|---------------------------------------------------------------------------------------------------|
C|---------------3/4---------------3/4---------------------------------------------------------------|
G|-2-2-2-2-2-2-2-1/2-2-2-2-2-2-2-2-1/2-----------------------------3h4p3---------------------------7-|
D|-0-0-0-0-0-0-0-1/2-0-0-0-0-0-0-0-1/2-2-5-2-5-8-7-5-2-5-2-5-8-7-5-------2-5-2-5-8-7-5-2-5-2-5-8-7-5-|
PM * * * * * * * *** * * * * * * * *** * * * * * * * * * * * * * *       * * * * * * * * * * * * * *

************************************

| /   slide up
| \   slide down
| h   hammer-on
| p   pull-off
| ~   vibrato
| +   harmonic
| x   Mute note
| b   Bend
| pb  Pre-bend
| br  Bend release
| pbr Pre-bend release
| brb Bend release bend

************************************
Добавлено: 03.11.2015
Другие материалы по этой песне:
  • Аккорды и текст

Страница создана 03.11.2015
http://primanota.ru/misc/acquisition-chords.htm
Привет, Гость.
Предлагаем пройти революционный курс по гитаре.
Подарок от PrimaNota.Ru, забирай!