PrimaNota.ru - самый крупный в мире бесплатный архив песенных текстов, аккордов, табулатур и нот


Misc - 101 Guitar Riffs Made Easier For Beginners Part 5 - таба, видео

Регистрация Запомнить меня
Войти через:  Facebook Google Twitter Vk Yandex Mail.ru

Misc - 101 Guitar Riffs Made Easier For Beginners Part 5 - таба, видео

Печатать
Просмотров: 71
Part 5, Riffs 81 - 101

Some of these songs are different from the originals due to changes in tunings or complexity.

Tabber: BadBikaDamo

Guitar Pro version also available

Legend
x - dead note
h - hammer on
p - pull off
b - bend
r - release bend
s - slide
L - tied note




Ben E King - Stand by me

E |----------------------------|----------------------------|
B |----------------------------|----------------------------|
G |----------------------------|----------------------------|
D |----------------------------|----------------------------|
A |--2--------2-----------1----|--2--------2--------2--1----|
E |--------------------2-------|----------------------------|


----------------------------|----------------------------|
----------------------------|----------------------------|
----------------------------|----------------------------|
----------------------------|----------------------------|
----------------------------|----------------------------|
--4--------4--------2-------|--4--------4--------4--2----|


----------------------------|----------------------------|
----------------------------|----------------------------|
----------------------------|----------------------------|
----------------------------|----------------------------|
----------------------------|-----------------------1----|
--0--------0--------0--4----|--2--------2--------2-------|


----------------------------|----------------------------|
----------------------------|----------------------------|
----------------------------|----------------------------|
----------------------------|----------------------------|
--2--------2-----------1----|--2--------2--------2--1----|
--------------------2-------|----------------------------|


----------------------------|----------------------------|
----------------------------|----------------------------|
----------------------------|----------------------------|
----------------------------|----------------------------|
----------------------------|----------------------------|
--4--------4--------2-------|--4--------4--------4--2----|


----------------------------|----------------------------|-------|
----------------------------|----------------------------|-------|
----------------------------|----------------------------|-------|
----------------------------|----------------------------|-------|
----------------------------|-----------------------1----|--2----|
--0--------0--------0--4----|--2--------2--------2-------|-------|




Henry Mancini - The Pink Panther Theme.

----------------------------|----------|----------------------------|----------|
----------------------------|----------|----------------------------|----------|
----------------------------|----------|----------------------------|----------|
----------------------------|----------|----------------------------|----------|
-----------------4s-5--6s---|--7-------|--7--------------4s-5--6s---|--7-------|
----------------------------|-----7----|----------------------------|-----7----|


----------------------------|----------|----------------------------|----------|
----------------------------|----------|----------------------------|----------|
----------------------------|----------|----------------------------|----------|
----------------------------|----------|----------------------------|----------|
--7--------------6s-5--4s---|--3-------|--3--------------4s-5--6s---|--7-------|
----------------------------|-----3----|----------------------------|-----7----|


----------------------------|-----------2h-3-------------|
-----------------------4h---|--5--------------------4h---|
----------------------------|----------------------------|
-----------------6s-7-------|----------------------------|
--7--------------4s-5-------|----------------------------|
----------------------------|----------------------------|


-----------8s-7-----3--7----|
--5--7s-8--------5----------|
----------------------------|
----------------------------|
----------------------------|
----------------------------|


--6-----------------------------------------5p----3-------------------------|
--------------------------------------------------------5--------3----------|
----------------------------------------------------------------------------|
----------------------------------------------------------------------------|
----------------------------------------------------------------------------|
----------------------------------------------------------------------------|


----------------------------|-----------2h-3-------------|
--5--------------------4h---|--5--------------------4h---|
----------------------------|----------------------------|
-----------------6s-7-------|----------------------------|
-----------------4s-5-------|----------------------------|
----------------------------|----------------------------|


-----------8s-7--------12---|--11------------------------|
--5--7s-8--------5--8-------|--------10-10----10----10---|
----------------------------|--------8--8-----8-----8----|
----------------------------|----------------------------|
----------------------------|----------------------------|
----------------------------|----------------------------|


----------------------------|-----------2h-3-------------|
--------10-10----------4h---|--5--------------------4h---|
--------8--8----------------|----------------------------|
-----------------6s-7-------|----------------------------|
-----------------4s-5-------|----------------------------|
----------------------------|----------------------------|


-----------8s-7-----3--7----|
--5--7s-8--------5----------|
----------------------------|
----------------------------|
----------------------------|
----------------------------|


--6-----------------------------------------5p----3-------------------------|
--------------------------------------------------------5--------3----------|
----------------------------------------------------------------------------|
----------------------------------------------------------------------------|
----------------------------------------------------------------------------|
----------------------------------------------------------------------------|


----------------------------|
--5--------5-----5----------|
-----------3-----3----------|
----------------------------|
----------------------------|
----------------------------|


--0-----------------------11s12----------10-------------------------------------
--0--------------------------------------------------12----------10-------------
--0--------------------------------------------------------------------------12-
--2-----------------------------------------------------------------------------
--2-----------------------------------------------------------------------------
--0-----------------------------------------------------------------------------


-----------------------|----------------------------------------------------|
-----------------------|--11p10-------11p10-------11p10-------11p10---------|
---------9-------------|----------------------------------------------------|
-----------------------|----------------------------------------------------|
-----------------------|----------------------------------------------------|
-----------------------|----------------------------------------------------|


----------------------------------------------------------------------------|
--8p----5-----------5--------5----------------------------------------------|
--------------7-------------------------------------------------------------|
----------------------------------------------------------------------------|
----------------------------------------------------------------------------|
----------------------------------------------------------------------------|


----------------------------------------------------------------------------|
--8p----5-----------5--------5----------------------------------------------|
--------------7-------------------------------------------------------------|
----------------------------------------------------------------------------|
----------------------------------------------------------------------------|
----------------------------------------------------------------------------|


----------------------------------------------------------------------------|
--8p----5-----------5--------5----------------------------------------------|
--------------7-------------------------------------------------------------|
----------------------------------------------------------------------------|
----------------------------------------------------------------------------|
----------------------------------------------------------------------------|


--0-------------------------|
--0-------------------------|
--0-------------------------|
--2-------------------------|
--2-------------------------|
--0-------------------------|



The Beatles - Come together.

----------------------------------------------------|
----------------------------------------------------|
--------------------10------------------------------|
--------------------------------------12s-----------|
--------------10h12---------------------------------|
--10----10------------------------------------------|


----------------------------------------------------|
----------------------------------------------------|
--------------------10------------------------------|
--------------------------------------12s-----------|
--------------10h12---------------------------------|
--10----10------------------------------------------|


----------------------------------------------------|
----------------------------------------------------|
--------------------10------------------------------|
--------------------------------------12s-----------|
--------------10h12---------------------------------|
--10----10------------------------------------------|


----------------------------------------------------|
----------------------------------------------------|
--------------------10------------------------------|
--------------------------------------12s-----------|
--------------10h12---------------------------------|
--10----10------------------------------------------|




Jethro Tull - Aqualung.

----------------------------|-------|----------------------------|
----------------------------|-------|----------------------------|
----------------------------|-------|----------------------------|
----------------------------|-------|----------------------------|
--5--------3--4-----3-------|-------|--5--------3--4-----3-------|
-----3--6-------------------|-------|-----3--6-------------------|


----------------------------|----------------------------|
----------------------------|----------------------------|
--6--------6--6-------------|-----8--8-----8-------------|
--6--------6--6-------------|-----8--8-----8-------------|
--4--------4--4-------------|-----6--6-----6-------------|
----------------------------|----------------------------|


----------------------------|----------------------------|
----------------------------|----------------------------|
--10-------10-10------------|--------11------------------|
--10-------10-10------------|--------11----11------------|
--8--------8--8-----6--8----|--6--8--9-----11------------|
----------------------------|--------------9-------------|


----------------------------|----------------------------|
----------------------------|----------------------------|
----------------------------|----------------------------|
----------------------------|----------------------------|
-----6--6--6--6-----9-------|--9--7--------5-------------|
-----------------9----------|--------7-------------------|


----------------------------|----------------------------|
----------------------------|----------------------------|
----------------------------|--6--------6--6-------------|
----------------------------|--6--------6--6-------------|
--5--------3--4-----3-------|--4--------4--4-------------|
-----3--6-------------------|----------------------------|


----------------------------|----------------------------|
----------------------------|----------------------------|
-----8--8-----8-------------|--10-------10-10------------|
-----8--8-----8-------------|--10-------10-10------------|
-----6--6-----6-------------|--8--------8--8-----6--8----|
----------------------------|----------------------------|


----------------------------|----------------------------|
----------------------------|----------------------------|
--------11------------------|----------------------------|
--------11----11------------|----------------------------|
--6--8--9-----11------------|-----6--6--6--6-----9-------|
--------------9-------------|-----------------9----------|


----------------------------|----------------------------|
----------------------------|----------------------------|
----------------------------|----------------------------|
----------------------------|----------------------------|
--9--7--------5-------------|--5--------3--4-----3-------|
--------7-------------------|-----3--6-------------------|




Ozzy Osbourne - Crazy Train.

----------------------------|----------------------------|
----------------------------|----------------------------|
----------------------------|----------------------------|
----------------------------|----------------------------|
--------4-----5-----4-------|--2-----------2-------------|
--2--2-----2-----2-----2----|-----5--4--5-----5--4--0----|


----------------------------|----------------------------|
----------------------------|----------------------------|
----------------------------|----------------------------|
----------------------------|----------------------------|
--------4-----5-----4-------|--2-----------2-------------|
--2--2-----2-----2-----2----|-----5--4--5-----5--4--0----|


----------------------------|----------------------------|
----------------------------|----------------------------|
----------------------------|----------------------------|
----------------------------|----------------------------|
--------4-----5-----4-------|--2-----------2-------------|
--2--2-----2-----2-----2----|-----5--4--5-----5--4--0----|


----------------------------|----------|
----------------------------|--7--9----|
----------------------------|--7--9----|
----------------------------|--7--9----|
--------4-----5-----4-------|--5--7----|
--2--2-----2-----2-----2----|-----0----|




Joe Walsh - Rocky Mountain Way.

----------------------------------------|
-----------------------------9-----9----|
-----------------------------9-----9----|
-----------------------------9-----9----|
--------------------------7--7-----7----|
--------------------------0--0----------|


----------------------------------------|
-----------------------------9-----9----|
-----------------------------9-----9----|
-----------11-------9--------9-----9----|
-----------7--------7--------7-----7----|
--------0--------0----------------------|


----------------------------------------|
-----------------------------9-----9----|
-----------------------------9-----9----|
-----------11-------9--------9-----9----|
-----------7--------7--------7-----7----|
--------0--------0----------------------|


----------------------------------------|
-----------------------------9-----9----|
-----------------------------9-----9----|
-----------11-------9--------9-----9----|
-----------7--------7--------7-----7----|
--------0--------0----------------------|


----------------------------------------|
-----------------------------9-----9----|
-----------------------------9-----9----|
-----------11-------9--------9-----9----|
-----------7--------7--------7-----7----|
--------0--------0----------------------|


----------------------------------------|
-----------------------------9-----9----|
-----------------------------9-----9----|
-----------11-------9--------9-----9----|
-----------7--------7--------7-----7----|
--0-----0--------0--------0-------------|


----------------------------------------|
-----------------------------9-----9----|
-----------------------------9-----9----|
-----------11-------9--------9-----9----|
-----------7--------7--------7-----7----|
--0-----0--------0--------0-------------|


----------------------------------------|
-----------------------------9-----9----|
-----------------------------9-----9----|
-----------11-------9--------9-----9----|
-----------7--------7--------7-----7----|
--0-----0--------0--------0-------------|


----------------------------------------|
----------------------------------------|
----------------------------------------|
-----------11-------9-------------------|
-----------7--------7--------7s-5-------|
--------0--------0--------0--------0----|


----------------------------------------|
--7--------7--------7--------7-----9----|
--7--------7--------7--------7-----9----|
--7--------7--------7--------7-----9----|
--5--------5--------5--------5-----7----|
--------0--------0--------0--------0----|


----------------------------------------|
----------------------------------------|
----------------------------------------|
-----------11-------9-------------------|
-----------7--------7--------7s-5-------|
--------0--------0--------0--------0----|


----------------------------------------|
--7--------7--------7--------7-----9----|
--7--------7--------7--------7-----9----|
--7--------7--------7--------7-----9----|
--5--------5--------5--------5-----7----|
--------0--------0--------0--------0----|


----------------------------------------|
----------------------------------------|
----------------------------------------|
-----------11-------9-------------------|
-----------7--------7--------7s-5-------|
--------0--------0--------0--------0----|


----------------------------------------|
--7--------7--------7--------7-----9----|
--7--------7--------7--------7-----9----|
--7--------7--------7--------7-----9----|
--5--------5--------5--------5-----7----|
--------0--------0--------0--------0----|


----------------------------------------|
----------------------------------------|
----------------------------------------|
-----------11-------9-------------------|
-----------7--------7--------7s-5-------|
--------0--------0--------0--------0----|


----------------------------------------|
--7--------7--------7--------7-----9----|
--7--------7--------7--------7-----9----|
--7--------7--------7--------7-----9----|
--5--------5--------5--------5-----7----|
--------0--------0--------0--------0----|


----------------------------------------------------------------------------|
----------------------------------------------------------------------------|
--------------------------------------------------------2-------------------|
--------------------------------------------------------2-------------------|
--------------------------------------------------------0-------------------|
--------------------------------------------------0-----------------3b------|


----------------------------------------|
----------------------------------------|
----------------------------------------|
----------------------------------------|
--2-------------------------------------|
--0-------------------------------------|


----------------------------------------------------------------------------|
----------------------------------------------------------------------------|
--------------------------------------------------------2-------------------|
--------------------------------------------------------2-------------------|
--------------------------------------------------------0-------------------|
--------------------------------------------------0-----------------3b------|


----------------------------------------|
----------------------------------------|
----------------------------------------|
----------------------------------------|
--2-------------------------------------|
--0-------------------------------------|


----------------------------------------------------------------------------|
----------------------------------------------------------------------------|
--------------------------------------------------------2-------------------|
--------------------------------------------------------2-------------------|
--------------------------------------------------------0-------------------|
--------------------------------------------------0-----------------3b------|


----------------------------------------|
----------------------------------------|
----------------------------------------|
----------------------------------------|
--2-------------------------------------|
--0-------------------------------------|


----------------------------------------------------------------------------|
----------------------------------------------------------------------------|
--------------------------------------------------------2-------------------|
--------------------------------------------------------2-------------------|
--------------------------------------------------------0-------------------|
--------------------------------------------------0-----------------3b------|


-------------|
-------------|
-------------|
-------------|
--2----------|
--0----------|




The Doors - Roadhouse Blues.

----------------------------------------------------------------------------|
----------------------------------------------------------------------------|
----------------------------------------------------------------------------|
----------------------------------------------------------------------------|
----------------------------------------------------------------------------|
--0--------0--------0--------0--------0--------0--------5h----6h----7-------|


----------------------------|
----------------------------|
----------------------------|
----------------------------|
--------------------5s-7----|
--0--0--0--0--0--0----------|


----------------------------------------------------------------------------|
----------------------------------------------------------------------------|
----------------------------------------------------------------------------|
----------------------------------------------------------------------------|
----------------------------------------------------------------------------|
--0--------0--------0--------0--------0--------0--------5h----6h----7-------|


----------------------------------------------------------------------------|
----------------------------------------------------------------------------|
----------------------------------------------------------------------------|
----------------------------------------------------------------------------|
--------------------------------------------------------5h----6h----7-------|
--0--------0--------0--------0--------0--------0----------------------------|


----------------------------|----------------------------|
----------------------------|----------------------------|
----------------------------|----------------------------|
----------------------------|----------------------------|
----------------------------|--------------------5s-7----|
--0--0--0--0--0--0--3b------|--0--0--0--0--0--0----------|


----------------------------|----------------------------|
----------------------------|----------------------------|
----------------------------|----------------------------|
----------------------------|----------------------------|
----------------------------|--------------------5s-7----|
--0--0--0--0--0--0--5s-7----|--0--0--0--0--0--0----------|


----------------------------|----------------------------|
----------------------------|----------------------------|
----------------------------|----------------------------|
----------------------------|----------------------------|
--------------------5s-7----|--------------------5s-7----|
--0--0--0--0--0--0----------|--0--0--0--0--0--0----------|


----------------------------|
----------------------------|
----------------------------|
----------------------------|
----------------------------|
--0--0--0--0--0--0--5s-7----|




Queen - Another one bites the dust.

----------------------------------------------------|
----------------------------------------------------|
----------------------------------------------------|
----------------------------------------------------|
----------------------------------------------------|
--------------------------------------------5--3----|


----------------------------------------------------|
----------------------------------------------------|
----------------------------------------------------|
----------------------------------------------------|
----------------------------------------------------|
--0-----------0-----------0--------------------0----|


----------------------------------------------------|
----------------------------------------------------|
----------------------------------------------------|
----------------------------------------------------|
----------------------------------------------------|
--0-----0-----3-----0--5--------------------5--3----|


----------------------------------------------------|
----------------------------------------------------|
----------------------------------------------------|
----------------------------------------------------|
----------------------------------------------------|
--0-----------0-----------0--------------------0----|


----------------------------------------------------|
----------------------------------------------------|
----------------------------------------------------|
----------------------------------------------------|
----------------------------------------------------|
--0-----0-----3-----0--5----------------------------|


----------------------------------------------------|
----------------------------------------------------|
----------------------------------------------------|
----------------------------------------------------|
----------------------------------------------------|
--0-----------0-----------0--------------------0----|


----------------------------------------------------|
----------------------------------------------------|
----------------------------------------------------|
----------------------------------------------------|
----------------------------------------------------|
--0-----0-----3-----0--5----------------------------|


----------------------------------------------------|
----------------------------------------------------|
----------------------------------------------------|
----------------------------------------------------|
----------------------------------------------------|
--0-----------0-----------0--------------------0----|


----------------------------------------------------|
----------------------------------------------------|
----------------------------------------------------|
----------------------------------------------------|
----------------------------------------------------|
--0-----0-----3-----0--5----------------------------|


----------------------------------------------------|
----------------------------------------------------|
----------------------------------------------------|
-----------------------------5----------------------|
--3-----3--------3-----4--5-------------------------|
--------------------------------------3-------------|


----------------------------------------------------|
----------------------------------------------------|
----------------------------------------------------|
----------------------------------------------------|
--3-----3--------3-----4--5-------------------------|
--------------------------------------3-------------|


----------------------------------------------------|
----------------------------------------------------|
----------------------------------------------------|
-----------------------------5----------------------|
--3-----3--------3-----4--5-------------------------|
--------------------------------------3-------------|


----------------------------------------------------|
----------------------------------------------------|
----------------------------------------------------|
----------------------------------------------------|
----------------------------------------------------|
--5-----5--------5-----6--7-------------------------|




The Fun Lovin' Criminals - The fun lovin' criminals.

--------0-----------------------0-----------0-------|
--------0-----------------------0-----------0-------|
--------------0-----1-------------------------------|
--------------2-----2-----------------0--2----------|
--2-------------------------------------------------|
--0-------------------------------------------------|


--------0-----------------------0-----------0-------|
--------0-----------------------0-----------0-------|
--------------0-----1-------------------------------|
--------------2-----2-----------------0--2----------|
--2-------------------------------------------------|
--0-------------------------------------------------|


--------0-----------------------0-----------0-------|
--------0-----------------------0-----------0-------|
--------------0-----1-------------------------------|
--------------2-----2-----------------0--2----------|
--2-------------------------------------------------|
--0-------------------------------------------------|


--------0-----------------------0-----------0-------|
--------0-----------------------0-----------0-------|
--------------0-----1-------------------------------|
--------------2-----2-----------------0--2----------|
--2-------------------------------------------------|
--0-------------------------------------------------|




Motorhead - The ace of spades.

----------------------------------------------------|
----------------------------------------------------|
----------------------------------------------------|
--------------------------9--------8--------7-------|
--------7-----7--7--7--7--7--------7--------7-------|
--0-------------------------------------------------|


----------------------------------------------------|
----------------------------------------------------|
----------------------------------------------------|
--------------------------9--------8--------7-------|
--------7-----7--7--7--7--7--------7--------7-------|
--0-------------------------------------------------|


----------------------------------------------------|
----------------------------------------------------|
----------------------------------------------------|
--------------------------9--------8--------7-------|
--------7-----7--7--7--7--7--------7--------7-------|
--0-------------------------------------------------|


----------------------------------------------------|
----------------------------------------------------|
----------------------------------------------------|
--------------------------9--------8--------7-------|
--------7-----7--7--7--7--7--------7--------7-------|
--0-------------------------------------------------|




Iron Maiden - The Trooper.

----------------------------------------------------|
----------------------------------------------------|
----------------------------------------------------|
----------------------------------------------------|
--7-----7-----7p-5--------5-----5-----5p-3----------|
--------------------7-----------------------5-------|


----------------------------------------------------|
----------------------------------------------------|
----------------------------------------------------|
--------------------------------5-------------------|
--3-----3-----3p-2--------5-----------5-----7~------|
--------------------3-------------------------------|


----------------------------------------------------|
----------------------------------------------------|
----------------------------------------------------|
----------------------------------------------------|
--------7-----7p-5--------5-----5-----5p-3----------|
--------------------7-----------------------5-------|


----------------------------------------------------|
----------------------------------------------------|
----------------------------------------------------|
--------------------------------5-------------------|
--3-----3-----3p-2--------5-----------5-----7-------|
--------------------3-------------------------------|


----------------------------------------------------|
----------------------------------------------------|
----------------------------------------------------|
----------------------------------------------------|
--------7-----7p-5--------5-----5-----5p-3----------|
--------------------7-----------------------5-------|


----------------------------------------------------|
----------------------------------------------------|
----------------------------------------------------|
--------------------------------5-------------------|
--3-----3-----3p-2--------5-----------5-----7~------|
--------------------3-------------------------------|


----------------------------------------------------|
----------------------------------------------------|
----------------------------------------------------|
----------------------------------------------------|
--------7-----7p-5--------5-----5-----5p-3----------|
--------------------7-----------------------5-------|


----------------------------------------------------|
----------------------------------------------------|
----------------------------------------------------|
--------------------------------5-------------------|
--3-----3-----3p-2--------5-----------5-----7-------|
--------------------3-------------------------------|


--------------------------7-------------------------|
--------8-----7h-8p-7h-8--------8-----7h-8p-7h-8----|
----------------------------------------------------|
----------------------------------------------------|
----------------------------------------------------|
----------------------------------------------------|


----------------------------|
--8--------------8----------|
-----9--9~----7-----7--9----|
----------------------------|
----------------------------|
----------------------------|


--------------------------7-------------------------|
--------8-----7h-8p-7h-8--------8-----7h-8p-7h-8----|
----------------------------------------------------|
----------------------------------------------------|
----------------------------------------------------|
----------------------------------------------------|


----------------------------|
--8--------------8----------|
-----9--9~----7-----7--9~---|
----------------------------|
----------------------------|
----------------------------|


--------------------------7-------------------------|
--------8-----7h-8p-7h-8--------8-----7h-8p-7h-8----|
----------------------------------------------------|
----------------------------------------------------|
----------------------------------------------------|
----------------------------------------------------|


----------------------------|
--8--------------8----------|
-----9--9~----7-----7--9~---|
----------------------------|
----------------------------|
----------------------------|


--------------------------7-------------------------|
--------8-----7h-8p-7h-8--------8-----7h-8p-7h-8----|
----------------------------------------------------|
----------------------------------------------------|
----------------------------------------------------|
----------------------------------------------------|


----------------------------|
--8--------------8----------|
-----9--9~----7-----7--9~---|
----------------------------|
----------------------------|
----------------------------|




The Foo Fighters - Monkey Wrench.

----------------------------|
--7--7--5--5--4--4--2--2----|
----------------------------|
----------------------------|
----------------------------|
----------------------------|


----------------------------|----------------------------|
--5--5--4--4--2--2--0--0----|--2--2--0--0--------0--0----|
----------------------------|--------------1--1----------|
----------------------------|----------------------------|
----------------------------|----------------------------|
----------------------------|----------------------------|


----------------------------|--2--2--0--0----------------|
--2--2--0--0--2b----2--0----|--------------4--4--2--2----|
----------------------------|----------------------------|
----------------------------|----------------------------|
----------------------------|----------------------------|
----------------------------|----------------------------|


--0--0----------------------|----------------------------|
--------4--4--2--2--0--0----|--2--2--0--0--------0--0----|
----------------------------|--------------1--1----------|
----------------------------|----------------------------|
----------------------------|----------------------------|
----------------------------|----------------------------|


----------------------------|
--2--2--0--0--2b----2--0----|
----------------------------|
----------------------------|
----------------------------|
----------------------------|



Paramour - Misery business.

----------------------------|
----------------------------|
----------------------------|
--6--6-----6--8h-10-8h-10---|
----------------------------|
----------------------------|


----------------------------|----------------------------|
----------------------------|----------------------------|
----------------------------|----------------------------|
--5--5-----5--5--5-----5----|--6--6-----6--8h-10-8h-10---|
----------------------------|----------------------------|
----------------------------|----------------------------|


----------------------------|----------------------------|
----------------------------|----------------------------|
----------------------------|----------------------------|
----------------------------|--6--6-----6--8h-10-8h-10---|
--8--8-----8--8--8----------|----------------------------|
----------------------------|----------------------------|


----------------------------|----------------------------|
----------------------------|----------------------------|
----------------------------|----------------------------|
--5--5-----5--5--5-----5----|--6--6-----6--8h-10-8h-10---|
----------------------------|----------------------------|
----------------------------|----------------------------|


----------------------------|
----------------------------|
--------------5h-8--8~------|
--------6h-8----------------|
--6h-8----------------------|
----------------------------|




Sum 41 - Fat lip.

----------------------------|
----------------------------|
----------------------------|
--------------6-------------|
----------------------------|
--4--5--7-------------------|


----------------------------|----------------------------|
----------------------------|----------------------------|
----------------------------|----------------------------|
--------------4-------------|--------------6-------------|
----------------------------|----------------------------|
--4--5--7-------------------|--4--5--7-------------------|


----------------------------|----------------------------|
----------------------------|----------------------------|
----------------------------|----------------------------|
--------------4--2----------|--------------6-------------|
----------------------------|----------------------------|
--4--5--7-------------------|--4--5--7-------------------|


----------------------------|----------------------------|
----------------------------|----------------------------|
----------------------------|----------------------------|
--------------4-------------|--------------6-------------|
----------------------------|----------------------------|
--4--5--7-------------------|--4--5--7-------------------|


----------------------------|----------------------------|
----------------------------|----------------------------|
----------------------------|----------------------------|
--------------4--2----------|--------------6-------------|
----------------------------|----------------------------|
--4--5--7-------------------|--4--5--7-------------------|


----------------------------|----------------------------|
----------------------------|----------------------------|
----------------------------|----------------------------|
--------------4-------------|--------------6-------------|
----------------------------|----------------------------|
--4--5--7-------------------|--4--5--7-------------------|


----------------------------|----------------------------|
----------------------------|----------------------------|
----------------------------|----------------------------|
--------------4--2----------|--------------6-------------|
----------------------------|----------------------------|
--4--5--7-------------------|--4--5--7-------------------|


----------------------------|----------------------------|
----------------------------|----------------------------|
----------------------------|----------------------------|
--------------4-------------|--------------6-------------|
----------------------------|----------------------------|
--4--5--7-------------------|--4--5--7-------------------|


----------------------------|
----------------------------|
----------------------------|
--------------4--2----------|
----------------------------|
--4--5--7-------------------|




Living Colour - Cult of personality

----------------------------------------------------|
----------------------------------------------------|
----------------------------------------------------|
-----3p-0-----2--------3p-0-----2-------------------|
----------------------------------------------------|
--3--------3--------3--------3----------------------|


----------------------------------------------------|
----------------------------------------------------|
----------------------------------------------------|
-----3p-0-----2--------3p-0-----2--2----------------|
----------------------------------------------------|
--3--------3--------3--------3----------------------|


----------------------------------------------------|
----------------------------------------------------|
----------------------------------------------------|
-----3p-0-----2--------3p-0-----2-------------------|
----------------------------------------------------|
--3--------3--------3--------3----------------------|


----------------------------------------------------|
----------------------------------------------------|
----------------------------------------------------|
-----3p-0-----2--------3p-0-----2--2----------------|
----------------------------------------------------|
--3--------3--------3--------3----------------------|


----------------------------------------|
----------------------------------------|
-----------------------2----------------|
-----3p-0-----5p-3p-0-----3p-0----------|
--------------------------------3--2----|
--3--------3----------------------------|


----------------------------------------------------|
----------------------------------------------------|
----------------------------------------------------|
-----3p-0-----2--------3p-0-----2-------------------|
----------------------------------------------------|
--3--------3--------3--------3----------------------|


----------------------------------------------------|
----------------------------------------------------|
----------------------------------------------------|
-----3p-0-----2--------3p-0-----2--2----------------|
----------------------------------------------------|
--3--------3--------3--------3----------------------|


----------------------------------------------------|
----------------------------------------------------|
----------------------------------------------------|
-----3p-0-----2--------3p-0-----2-------------------|
----------------------------------------------------|
--3--------3--------3--------3----------------------|


----------------------------------------------------|
----------------------------------------------------|
----------------------------------------------------|
-----3p-0-----2--------3p-0-----2--2----------------|
----------------------------------------------------|
--3--------3--------3--------3----------------------|




Anthrax - Indians.

----------------------------------------------------|
----------------------------------------------------|
----------------------------------------------------|
--7-----------5-----------7h-10p9-------------------|
----------------------------------------------------|
----------------------------------------------------|


----------------------------------------------------|
----------------------------------------------------|
----------------------------------------------------|
--7-----------5-----------7h-10p9-------------------|
----------------------------------------------------|
----------------------------------------------------|


----------------------------------------------------|
----------------------------------------------------|
----------------------------------------------------|
--9-----------7-----------9h-12p11------------------|
----------------------------------------------------|
----------------------------------------------------|


----------------------------------------------------|
----------------------------------------------------|
----------------------------------------------------|
--9-----------7-----------9h-12p11------------------|
----------------------------------------------------|
----------------------------------------------------|


----------------------------------------------------|
----------------------------------------------------|
----------------------------------------------------|
--7-----------5-----------7p-5----------------------|
--------------------------------7-----7-------------|
----------------------------------------------------|


----------------------------------------------------|
----------------------------------------------------|
----------------------------------------------------|
--7-----------5-----------7p-5----------------------|
--------------------------------7-----7-------------|
----------------------------------------------------|


----------------------------------------------------|
----------------------------------------------------|
----------------------------------------------------|
--7-----------5-----------7p-5----------------------|
--------------------------------7-----7-------------|
----------------------------------------------------|


----------------------------------------------------|
----------------------------------------------------|
----------------------------------------------------|
--7-----------5-----------7p-5----------------------|
--------------------------------7-----7-------------|
----------------------------------------------------|


----------------------------------------------------|
----------------------------------------------------|
----------------------------------------------------|
--9-----------7-----------9p-7----------------------|
--------------------------------9-----9-------------|
----------------------------------------------------|


----------------------------------------------------|
----------------------------------------------------|
----------------------------------------------------|
--9-----------7-----------9p-7----------------------|
--------------------------------9-----9-------------|
----------------------------------------------------|


----------------------------------------------------|
----------------------------------------------------|
----------------------------------------------------|
--7-----------5-----------7p-5----------------------|
--------------------------------7-----7-------------|
----------------------------------------------------|


----------------------------------------------------------------------------|
----------------------------------------------------------------------------|
----------------------------------------------------------------------------|
--7-----------5-----------7p-5--------------------------------------10------|
--------------------------------7-----7-----------------7-----6-----8-------|
--------------------------------------------------------5-----4-------------|


----------------------------------------------------|
----------------------------------------------------|
----------------------------------------------------|
--9-----------------------------------------10------|
--7-----------------------------7-----6-----8-------|
-----0--0--0--0--0--0--0--0--0--5-----4-------------|


----------------------------------------------------|-------|
----------------------------------------------------|-------|
----------------------------------------------------|-------|
--9-----------------------------------------10------|--9----|
--7-----------------------------7-----6-----8-------|--7----|
-----0--0--0--0--0--0--0--0--0--5-----4-------------|-------|




The Police - Message in a bottle.

----------------------------|----------------------------|
--------4-------------------|----------------------------|
----------------------------|--------4-------------------|
-----6--------------9-------|-----4--------------6s-7----|
--4--------------7-----2----|-----------------4----------|
-----------5----------------|-----------2----------------|


----------------------------|----------------------------|
--------4-------------------|----------------------------|
----------------------------|--------4-------------------|
-----6--------------9-------|-----4--------------6s-7----|
--4--------------7-----2----|-----------------4----------|
-----------5----------------|-----------2----------------|


----------------------------|----------------------------|
--------4-------------------|----------------------------|
----------------------------|--------4-------------------|
-----6--------------9-------|-----4--------------6s-7----|
--4--------------7-----2----|-----------------4----------|
-----------5----------------|-----------2----------------|


----------------------------|----------------------------|
--------4-------------------|----------------------------|
----------------------------|--------4-------------------|
-----6--------------9-------|-----4--------------6s-7----|
--4--------------7-----2----|-----------------4----------|
-----------5----------------|-----------2----------------|




Ted Nugent - Strangle hold.

----------------------------------------------------|
----------------------------------------------------|
--------------9--------9-----9--------5-----5--7----|
--5s-7--------7--------7-----7--------5-----5--7----|
--0-----0--0-----0--0-----0-----0--0----------------|
----------------------------------------------------|


--------------------------------------------------------------------------------
--------------------------------------------------------------------------------
--7p-5--------------------------------------9-----------9-----------5-----------
--7p-5--------------------7-----------------7-----------7-----------5-----------
--------0-----0-----0-----0-----0-----0-----------0-----------0-----------5-----
--------------------------------------------------------------------------3-----


--------------------|----------------------------------------------------|
--------------------|----------------------------------------------------|
--------------------|--------------9--------9-----9--------5-----5--7----|
--------------------|--5s-7--------7--------7-----7--------5-----5--7----|
------7-------------|--0-----0--0-----0--0-----0-----0--0----------------|
------5-------------|----------------------------------------------------|


-------------------------------------------------------------------|
----------------------------------------------------12-----14s-----|
--7p-5--------------9-----------9-------9-----------12-----14s-----|
--7p-5--------------7-----------7-------7-----------12-----14s-----|
--------0---0---0-------0---0-------0-------0----------------------|
------------------------------------------------0------------------|





The Ramones - Blitzkrieg bop.

----------------------------|----------------------------|
----------------------------|----------------------------|
----------------------------|--7-----7--9-----9--9-------|
--7--7--7--7--7--7--7--7----|--7-----7--9-----9--9-------|
--7--7--7--7--7--7--7--7----|--5-----5--7-----7--7-------|
--5--5--5--5--5--5--5--5----|----------------------------|


----------------------------|----------------------------|
----------------------------|----------------------------|
----------------------------|--7-----7--9-----9--9-------|
--7--7--7--7--7--7--7--7----|--7-----7--9-----9--9-------|
--7--7--7--7--7--7--7--7----|--5-----5--7-----7--7-------|
--5--5--5--5--5--5--5--5----|----------------------------|


----------------------------|----------------------------|
----------------------------|----------------------------|
----------------------------|--7-----7--9-----9--9-------|
--7--7--7--7--7--7--7--7----|--7-----7--9-----9--9-------|
--7--7--7--7--7--7--7--7----|--5-----5--7-----7--7-------|
--5--5--5--5--5--5--5--5----|----------------------------|


----------------------------|----------------------------|
----------------------------|----------------------------|
--------------7-----7--7----|----------------------------|
--7-----7--7--7-----7--7----|--7--7--7--7--7--7--7--7----|
--7-----7--7--5-----5--5----|--7--7--7--7--7--7--7--7----|
--5-----5--5----------------|--5--5--5--5--5--5--5--5----|




The Sweet - Ballroom blitz.

----------------------------------------------------|
--------0--------2--------3--------2--------0-------|
--------x--------x--------x--------x--------x-------|
--2-----2--------2--------2--------2--------2-------|
----------------------------------------------------|
----------------------------------------------------|


----------------------------------------------------|
--------0--------2--------3--------2--------0-------|
--------x--------x--------x--------x--------x-------|
--2-----2--------2--------2--------2--------2-------|
----------------------------------------------------|
----------------------------------------------------|


----------------------------------------------------|
--------0--------2--------3--------2--------0-------|
--------x--------x--------x--------x--------x-------|
--2-----2--------2--------2--------2--------2-------|
----------------------------------------------------|
----------------------------------------------------|


----------------------------------------------------|----------------|
--------0--------2--------3--------2--------0-------|----------------|
--------x--------x--------x--------x--------x-------|----------------|
--2-----2--------2--------2--------2--------2-------|--2s------------|
----------------------------------------------------|----------------|
----------------------------------------------------|----------------|




The Charlie Daniels' Band - Dueling banjo's

---------------------|----------------------------|
---------------------|----------------------------|
--0------------------|----------------------------|
--0------------------|--0--2--0-------------------|
--2------------------|--2--3--2-------------------|
--3------------------|--3--3--3-------------------|


----------------------------------------------------|
--------------------------------------------0--1----|
----------------------------------------------------|
----------------------------------------------------|
----------------------------------------------------|
----------------------------------------------------|


----------------------------|
--3--0--1-----0-------------|
-----------2-----0--2-------|
----------------------------|
----------------------------|
----------------------------|


----------------------------------------------------|
--------------------------------------------0--1----|
----------------------------------------------------|
----------------------------------------------------|
----------------------------------------------------|
----------------------------------------------------|


----------------------------|----------|----------------------------|
--3--0--1-----0-------------|----------|----------------------------|
-----------2-----0--2-------|----------|--0--0--2--4--0--4--2-------|
----------------------------|-----0----|----------------------------|
----------------------------|----------|----------------------------|
----------------------------|----------|----------------------------|


----------------------------------------------------|
----------------------------------------------------|
----------------------------------------------------|
----------------------------------------------------|
----------------------------------------------------|
--------------------------------------------3--3----|


----------------------------|
----------------------------|
----------------------------|
--------------0-------------|
-----0--2--3-----3--2-------|
--3-------------------------|


----------------------------------------------------|
----------------------------------------------------|
----------------------------------------------------|
----------------------------------------------------|
----------------------------------------------------|
--------------------------------------------3--3----|


----------------------------|
----------------------------|
----------------------------|
--------------0-------------|
-----0--2--3-----3--2-------|
--3-------------------------|


----------------------------------------------------|
----------------------------------------------------|
----------------------------------------------------|
----------------------------------------------------|
--------------------------------------------3--3----|
----------------------------------------------------|


----------------------------|
----------------------------|
--------------0-------------|
-----0--2--3-----3--2-------|
--3-------------------------|
----------------------------|


----------------------------------------------------|
----------------------------------------------------|
----------------------------------------------------|
----------------------------------------------------|
----------------------------------------------------|
--------------------------------------------3--3----|


----------------------------|
----------------------------|
----------------------------|
--------------0-------------|
-----0--2--3-----3--2-------|
--3-------------------------|


----------------------------------------------------|
----------------------------------------------------|
----------------------------------------------------|
--------------------------------------------0--0----|
----------------------------------------------------|
----------------------------------------------------|


----------------------------|
----------------------------|
-----------0--2--0----------|
--0--2--4-----------4-------|
----------------------------|
----------------------------|


----------------------------------------------------|
----------------------------------------------------|
----------------------------------------------------|
--------------------------------------------0--0----|
--------------------------------------------2--2----|
--------------------------------------------3--3----|


----------------------------------------------------|
----------------------------------------------------|
----------------------------------------------------|
--0-----2-----0-----------------------------0--0----|
--2-----3-----2-----------------------------2--2----|
--3-----3-----3-----------------------------3--3----|


----------------------------||
----------------------------||
----------------------------||
--0--2--0-------------------||
--2--3--2-------------------||
--3--3--3-------------------||

Добавлено: 03.11.2015
Другие материалы по этой песне:
  • Аккорды и текст

Страница создана 03.11.2015
http://primanota.ru/misc/101-guitar-riffs-made-easier-for-beginners-part-5-chords.htm
Привет, Гость.
Предлагаем пройти революционный курс по гитаре.
Подарок от PrimaNota.Ru, забирай!