PrimaNota.ru - самый крупный в мире бесплатный архив песенных текстов, аккордов, табулатур и нот


Misc - 101 Guitar Riffs Made Easier For Beginners Part 4 - таба, видео

Регистрация Запомнить меня
Войти через:  Facebook Google Twitter Vk Yandex Mail.ru

Misc - 101 Guitar Riffs Made Easier For Beginners Part 4 - таба, видео

Печатать
Просмотров: 55
Уроки эстрадного вокала в Санкт-Петербурге
Part 4, Riffs 61 - 80

Some of these songs are different from the originals due to changes in tunings or complexity.

Tabber: BadBikaDamo

Guitar Pro version also available

Legend
x - dead note
h - hammer on
p - pull off
b - bend
r - release bend
s - slide
L - tied note



Status Quo - Down down.
 
E |----------------------------|----------------------------|
B |----------------------------|----------------------------|
G |----------------------------|----------------------------|
D |--7--7--9--7--7--7--9--7----|--7--7--9--7--7--7--9--7----|
A |--5--5--5--5--5--5--5--5----|--5--5--5--5--5--5--5--5----|
E |----------------------------|----------------------------|

                                                          
----------------------------|----------------------------|
----------------------------|----------------------------|
----------------------------|----------------------------|
--7--7--9--7--7--7--9--7----|--7--7--9--7--7--7--9--7----|
--5--5--5--5--5--5--5--5----|--5--5--5--5--5--5--5--5----|
----------------------------|----------------------------|

                                                          
----------------------------|----------------------------|
----------------------------|----------------------------|
----------------------------|-----------------------5----|
--9-----------------9--7----|--------------------7--5----|
--9-----------------9--7----|--------------------7--3----|
--7-----------------7--5----|--------------------5-------|

                                                                     
----------------------------|----------|----------------------------|
----------------------------|----------|----------------------------|
--------------------4--4L---|-(4)------|----------------------------|
--------------------4--4L---|-(4)------|--7--7--9--7--7--7--9--7----|
--------------------2--2L---|-(2)------|--5--5--5--5--5--5--5--5----|
----------------------------|----------|----------------------------|

                                                                           
----------------------------|----------------------------|
----------------------------|----------------------------|
----------------------------|----------------------------|
--7--7--9--7--7--7--9--7----|--7--7--7--7----------------|
--5--5--5--5--5--5--5--5----|--5--5--5--5----------------|
----------------------------|----------------------------|

         



Jimi Hendrix - Purple haZe.
                                                 
----------------|----------------------------|-------------------------|
----------------|----------------------------|--------8b---------------|
----------------|----------------------------|-----7-------------------|
-----8-----8----|--------8-----------8-------|--9--------7~------------|
----------------|----------------------------|-------------------------|
--6-----6-------|--6-----------6-------------|-------------------------|

                                                     
----------------------------------------------------|
----------------------------------------------------|
----------------------------------------------------|
--5-------------------------------------------------|
--------5-----------5s-7~---------------------------|
--------------0-------------------------------------|

                             
----------------------------|
--------8b------------------|
-----7----------------------|
--9--------7~---------------|
----------------------------|
----------------------------|

                                                     
----------------------------------------------------|
----------------------------------------------------|
----------------------------------------------------|
--5-------------------------------------------------|
--------5-----------5s-7~-------------------5s-7----|
--------------0-------------------------------------|

                                                     
----------------------------------------------------|
----------------------------------------------------|
----------------------------------------------------|
--5-----7-----7b-------5~---------------------------|
----------------------------------------------------|
----------------------------------------------------|

                             
----------------------------|
----------------------------|
----------------------------|
--5-------------------------|
-----0----------------------|
--------0--3~---------------|

                                                     
----------------------------------------------------|
----------------------------------------------------|
----------------------------------------------------|
--------5-----7b----5s-7~-------------5-----0-------|
--5s-7----------------------------------------------|
----------------------------------------------------|

                                                                             
----------------------------------------------------------------------------|
----------------------------------------------------------------------------|
-----------7--------7--------9~---------------------------------------------|
--9-------------------------------------------------------------------------|
----------------------------------------------------------------------------|
--------------------------------------------------------12s-----------------|

                                                     
----------------------------------------------------|
--------------8-----8--------8--8-----8-------------|
--------------7-----7--------7--7-----7-------------|
--------------6-----6--------6--6-----6-------------|
----------------------------------------------------|
--0-------------------------------------------------|

                                                     
----------------------------------------------------|
--------------------------------5--5--7P-5--5-------|
--------------------------------6--6--6-----6-------|
--------5-----5-----------------7--7--7-----7-------|
--------x-----x-------------------------------------|
--3-----3-----3-----3-----5-------------------------|

                                                     
----------------------------------------------------|
--------------8-----8--------8--8--8--8-------------|
--------------7-----7--------7--7--7--7-------------|
--------------6-----6--------6--6--6--6-------------|
--------------------------------------------7s------|
--0-------------------------------------------------|

                                                     
----------------------------------------------------|
--------------------------------5--5--7P-5--5-------|
--------------------------------6--6--6-----6-------|
--------------5-----------------7--7--7-----7-------|
--------------x-------------------------------------|
--3-----3-----3-----3-----5-------------------------|




Jimi Hendrix - Voodoo Child.
                                                     
----------------------------------------------------|
----------------------------------------------------|
--9-----------------7-------------------------------|
-----------7h-9-----------5-----5-----7P-5----------|
--------------------------------------------7-------|
----------------------------------------------------|

                                                     
----------------------------------------------------|
----------------------------------------------------|
--9~----------------9~------------------------------|
-----------7h-9-------------------------------------|
----------------------------------------------------|
----------------------------------------------------|

                                                     
----------------------------------------------------|
----------------------------------------------------|
--9-----------------7-------------------------------|
-----------7h-9-----------5-----5-----7P-5----------|
--------------------------------------------7-------|
----------------------------------------------------|

                                                     
----------------------------------------------------|
----------------------------------------------------|
--9~----------------9~------------------------------|
-----------7h-9-------------------------------------|
----------------------------------------------------|
----------------------------------------------------|

                                                     
----------------------------------------------------|
----------------------------------------------------|
--9-----------------7-------------------------------|
-----------7h-9-----------5-----5-----7P-5----------|
--------------------------------------------7-------|
----------------------------------------------------|

                                                     
----------------------------------------------------|
--------------------------10b---10----8-------------|
--9~----------------9~----------------------9s------|
-----------7h-9-------------------------------------|
----------------------------------------------------|
----------------------------------------------------|




T-Rex - 20th century boy.
                                                         
----------------------------|----------------------------|
----------------------------|----------------------------|
----------------------------|----------------------------|
--2-------------------------|--2-------------------------|
--2-------------------------|--2-------------------------|
--0-------------------------|--0-------------------------|

                             
----------------------------|
----------------------------|
----------------------------|
--2-------------------------|
--2-------------------------|
--0--------0--2b-0--x--2b+r-|

                                                     
----------------------------------------------------|
----------------------------------------------------|
----------------------------------------------------|
--------------------------------------------2--2----|
--------------------------------------------2--2----|
--------0-----2b----------0-----------------0--0----|

                             
----------------------------|
----------------------------|
----------------------------|
--2-------------------------|
--2-------------------------|
--0--------0--2b-0--x--2b---|

                                                     
----------------------------------------------------|
----------------------------------------------------|
----------------------------------------------------|
--------------------------------------------2--2----|
--------------------------------------------2--2----|
--------0-----2b----------0-----------------0--0----|

                             
----------------------------|
----------------------------|
----------------------------|
--2-------------------------|
--2-------------------------|
--0--------0--2b-0--x--2b+r-|

                                                     
----------------------------------------------------|
----------------------------------------------------|
----------------------------------------------------|
--------------------------------------------2--2----|
--------------------------------------------2--2----|
--------0-----2b----------0-----------------0--0----|

                                                          
----------------------------|----------------------------|
----------------------------|----------------------------|
----------------------------|----------------------------|
--2-------------------------|----------------------------|
--2-------------------------|----------------------------|
--0--------0--2b-0--x--2b---|-------0--2b----0------0----|




Metallica - Enter Sandman.
                                                          
-------|-------------------------|----------------------------|
-------|-------------------------|----------------------------|
-------|-------------------------|----------------------------|
-------|-------------------------|----------------------------|
--2----|--2--7--------------2----|-----2--7--------------2----|
--0----|--0-----6--5~----0--0----|-----0-----6--5~----0--0----|

                                                          
----------------------------|----------------------------|
----------------------------|----------------------------|
----------------------------|----------------------------|
----------------------------|----------------------------|
-----2--7-------------------|----------------------------|
-----0-----6--5~----0--3----|-----0--2--0--2--3--2--0----|

                                                          
----------------------------|----------------------------|
----------------------------|----------------------------|
----------------------------|----------------------------|
----------------------------|----------------------------|
-----2--7--------------2----|-----2--7--------------2----|
-----0-----6--5~----0--0----|-----0-----6--5~----0--0----|

                                                          
----------------------------|----------------------------|
----------------------------|----------------------------|
----------------------------|----------------------------|
----------------------------|----------------------------|
-----2--7-------------------|----------------------------|
-----0-----6--5~----0--3----|-----0--2--0--2--3--2--0----|




Led Zeppelin - Whole lotta' love,
                                                     
----------------------------------------------------|
----------------------------------------------------|
----------------------------------------------------|
----------------------------------------------------|
-----------------------------------5--------5-------|
--------------------------------7s-------7----------|

                                                     
----------------------------------------------------|
----------------------------------------------------|
----------------------------------------------------|
--9-----------9-----------9-----------9-------------|
--7-----------7-----------7-----------7-------------|
-----0--0--0-----0--0--0-----0--0--0-----0--0--0----|

                                                     
----------------------------------------------------|
----------------------------------------------------|
----------------------------------------------------|
--9-----------9-----------9-------------------------|
--7-----------7-----------7--------5b-------5b------|
-----0--0--0-----0--0--0--------7--------7----------|

                                                     
----------------------------------------------------|
----------------------------------------------------|
----------------------------------------------------|
--9-----------9-----------9-----------9-------------|
--7-----------7-----------7-----------7-------------|
-----0--0--0-----0--0--0-----0--0--0-----0--0--0----|

                                                     
----------------------------------------------------|
----------------------------------------------------|
----------------------------------------------------|
--9-----------9-----------9-------------------------|
--7-----------7-----------7--------5b-------5b------|
-----0--0--0-----0--0--0--------7--------7----------|

                                                                                
--------------------------------------------------------------------------------
--------------------------------------------------------------------------------
--------------------------------------------------------------------------------
--9-----------------------9-----------------------9-----------------------------
--7-----------------------7-----------------------7--------------------5b-------
--------0-----0-----0-----------0-----0-----0-----------------5--7--------------

                                                                             
-----------------------|----------------------------------------------------|
-----------------------|----------------------------------------------------|
-----------------------|----------------------------------------------------|
-----------------------|--9-----------9-----------9-------------------------|
---------5b------------|--7-----------7-----------7--------5b-------5b------|
---7-------------------|-----0--0--0-----0--0--0--------7--------7----------|

                                                     
----------------------------------------------------|
----------------------------------------------------|
----------------------------------------------------|
--9-----------9-----------9-------------------------|
--7-----------7-----------7--------5b-------5b------|
-----0--0--0-----0--0--0--------7--------7----------|

                                                     
----------------------------------------------------|
----------------------------------------------------|
----------------------------------------------------|
--9-----------9-----------9-------------------------|
--7-----------7-----------7--------5b-------5b------|
-----0--0--0-----0--0--0--------7--------7----------|

                                                     
----------------------------------------------------|
----------------------------------------------------|
----------------------------------------------------|
--9-----------9-----------9-------------------------|
--7-----------7-----------7--------5b-------5b------|
-----0--0--0-----0--0--0--------7--------7----------|

                                                     
----------------------------------------------------|
--------------12s-----------------------------------|
--------------12s-----------------------------------|
--9-----------12s-----------------------------------|
--7--------------------------------5b-------5b------|
--------------------------------7--------7----------|

                             
----------------------------|
--------12s-----------------|
--------12s-----------------|
--9-----12s-----------------|
--7-------------------------|
----------------------------|




Deric and the Dominoes - Layla.
                                                             
----------------------------------------------------|-------|
----------------------------------------------------|-------|
--------------------------------------7h-10p7-------|--7~---|
--------------------------------7h-10----------10---|-------|
----------------------------------------------------|-------|
----------------------------------------------------|-------|

                                                             
----------------------------------------------------|-------|
----------------------------------------------------|-------|
--------------------------------------7h-10p7-------|--7~---|
--------------------------------7h-10----------10---|-------|
----------------------------------------------------|-------|
----------------------------------------------------|-------|

                                                     
--------------------------------------10h13p10------|
--------------------------------10h13----------13---|
----------------------------------------------------|
----------------------------------------------------|
----------------------------------------------------|
----------------------------------------------------|

                             
--10-------13b---13----12---|
----------------------------|
----------------------------|
----------------------------|
----------------------------|
----------------------------|

                                                     
--------------------10----------------10h13p10------|
--------13----------------------10h13----------13---|
----------------------------------------------------|
----------------------------------------------------|
----------------------------------------------------|
----------------------------------------------------|

                             
--10-------15b---15----12---|
----------------------------|
----------------------------|
----------------------------|
----------------------------|
----------------------------|

                                                     
--------------------10----------------10h13p10------|
--------13----------------------10h13----------13---|
----------------------------------------------------|
----------------------------------------------------|
----------------------------------------------------|
----------------------------------------------------|

                             
--10----10-13b---13----12---|
----------------------------|
----------------------------|
----------------------------|
----------------------------|
----------------------------|

                                                     
--------------------10----------------10h13p10------|
--------13----------------------10h13----------13---|
----------------------------------------------------|
----------------------------------------------------|
----------------------------------------------------|
----------------------------------------------------|

                                                                      
--10-------15b---15----12---------------|
-----------------------------13----13b--|
----------------------------------------|
----------------------------------------|
----------------------------------------|
----------------------------------------|

 


Dire Straights - Money for nothing.

----------------------------|
-----------------------6----|
--7-----7--------5--7--5----|
--5-----5--------5--5-------|
----------------------------|
----------------------------|

                              
----------------------------|----------------------------|
----------------------------|----------------------------|
--------7--5--5--3--0--0----|--0-----3--------3----------|
--------5--5--5--3--0--0----|--0-----3--------3--0--0----|
----------------------------|--------------------0--0----|
----------------------------|----------------------------|

                                                          
----------------------------|----------------------------|
----------------------------|-----------------------6----|
--------------5-----3--0----|--7-----7--------5--7--5----|
--3s----5-----5-----3--0----|--5-----5--------5--5-------|
--1s----3-------------------|----------------------------|
----------------------------|----------------------------|

                                                                           
----------------------------|----------------------------|----------------|
----------------------------|----------------------------|----------------|
--------7--5--5--3--0--0----|--0-----0--------3----------|----------------|
--------5--5--5--3--0--0----|--0-----0--------3--0--0----|--3--5--5-------|
----------------------------|----------------------------|--3--5--5-------|
----------------------------|----------------------------|----------------|





David Bowie - Ziggy Stardust.
         
--3-----------x-----------2--3--2--3--2-------------|
--3-----------x-----------3-----------------3s------|
--0-----------x-----------2-------------------------|
--0-----------x-----------0-------------------------|
--2-----------x-------------------------------------|
--3-----------x-------------------------------------|

                                                     
----------------------------------------------------|
--3-----3--x--3-----3-----x--3--3-----1-----1-------|
--0-----0--x--0-----0-----x--0--0-----2-----2-------|
--2-----2--x--2-----2-----x--0--0-----2-----2-------|
--3-----3--x--3-----2-----x--2--2-----0-----0-------|
----------------------------------------------------|

                                                     
--3-----------x-----------2--3--2--3--2-------------|
--3-----------x-----------3-----------------3s------|
--0-----------x-----------2-------------------------|
--0-----------x-----------0-------------------------|
--2-----------x-------------------------------------|
--3-----------x-------------------------------------|

                                                             
----------------------------------------------------|--3----|
--3-----3--x--3-----3-----x--3--3-----1-----1-------|--3----|
--0-----0--x--0-----0-----x--0--0-----2-----2-------|--0----|
--2-----2--x--2-----2-----x--0--0-----2-----2-------|--0----|
--3-----3--x--3-----2-----x--2--2-----0-----0-------|--2----|
----------------------------------------------------|--3----|




Chuck Berry - Johhny B Goode.

----------------------------------------------------|
--------------------------------------6-----8-------|
-----------------------------6s-7-------------------|
----------------------------------------------------|
----------------------------------------------------|
----------------------------------------------------|

                                                                                
--5s-6-----------6-----------6-----------5s-6-----------6-----------6-----------
--5s-6-----------6-----------6-----------5s-6-----------6-----------6-----------
--------------------------------------------------------------------------------
--------------------------------------------------------------------------------
--------------------------------------------------------------------------------
--------------------------------------------------------------------------------

                                                           
5s-6-----------6-------------|--6-------------------------|
5s-6-----------6-------------|-----9--8--6----------------|
-----------------------------|--------------6--7----------|
-----------------------------|--------------------8--8----|
-----------------------------|----------------------------|
-----------------------------|----------------------------|

                             
----------------------------|
----------------------------|
----------------------------|
--8--8--8--8--8--8--8--8----|
--8--8--8--8--8--8--8--8----|
----------------------------|

                                                                                
---------------------------------------------------------|
--5--6------6------6------6------6-----------------------|
--6s-7------7------7------7------7s-----5----------------|
-----------------------------------------------8-----5---|
---------------------------------------------------------|
---------------------------------------------------------|

                                                     
----------------------------|
--------6--------6----------|
--8b-------8b-------8b------|
----------------------------|
----------------------------|
----------------------------|

                                                          
--6-----------------6-------|----------------------------|
--6--------6--------6-------|--------6--------6----------|
-----8b-------8b------------|--8b-------8b-------8b------|
----------------------------|----------------------------|
----------------------------|----------------------------|
----------------------------|----------------------------|

                                                          
--------------------6-------|--------6-----------8--6----|
--6--------6--------6-------|-----------9--8--6----------|
-----8b-------8b------------|--8b------------------------|
----------------------------|----------------------------|
----------------------------|----------------------------|
----------------------------|----------------------------|

                                                     
--------------------------------------6-------------|
--9-----8-----6--------------------6--------9-------|
--------------------8-----6s----7-------------------|
----------------------------------------------------|
----------------------------------------------------|
----------------------------------------------------|

                                                     
----------------------------------------------------|
--8-----6-----------6-----------6-------------------|
--------------8b----------8b----------7-----6s-7----|
----------------------------------------------------|
----------------------------------------------------|
----------------------------------------------------|

                                                          
----------------------------|----------------------------|
----------------------------|----------------------------|
----------------------------|----------------------------|
--8-------------------------|----------------------------|
----------------------------|--8--8--10-8--8--8--10-8----|
--------6--6--6--6--6-------|--6--6--6--6--6--6--6--6----|

                                                          
----------------------------|----------------------------|
----------------------------|----------------------------|
----------------------------|----------------------------|
----------------------------|----------------------------|
--8--8--10-8--8--8--10-8----|--8--8--10-8--8--8--10-8----|
--6--6--6--6--6--6--6--6----|--6--6--6--6--6--6--6--6----|

                                                          
----------------------------|----------------------------|
----------------------------|----------------------------|
----------------------------|----------------------------|
----------------------------|--8--8--10-8--8--8--10-8----|
--8--8--10-8--8--8--10-8----|--6--6--6--6--6--6--6--6----|
--6--6--6--6--6--6--6--6----|----------------------------|

                                                          
----------------------------|----------------------------|
----------------------------|----------------------------|
----------------------------|----------------------------|
--8--8--10-8--8--8--10-8----|----------------------------|
--6--6--6--6--6--6--6--6----|--8--8--10-8--8--8--10-8----|
----------------------------|--6--6--6--6--6--6--6--6----|

                                                          
----------------------------|----------------------------|
----------------------------|----------------------------|
----------------------------|----------------------------|
----------------------------|--10-10-12-10-10-10-12-10---|
--8--8--10-8--8--8--10-8----|--8--8--8--8--8--8--8--8----|
--6--6--6--6--6--6--6--6----|----------------------------|

                                                          
----------------------------|----------------------------|
----------------------------|----------------------------|
----------------------------|----------------------------|
--10-10-12-10-10-10-12-10---|----------------------------|
--8--8--8--8--8--8--8--8----|--8--8--10-8--8--8--10-8----|
----------------------------|--6--6--6--6--6--6--6--6----|

                                                          
----------------------------|
----------------------------|
----------------------------|
----------------------------|
--8--8--10-8----------------|
--6--6--6--6----------------|




Ram Jam - Black Betty

----------------------------|----------------------------|
----------------------------|----------------------------|
----------------------------|----------------------------|
-----------------------7----|--9--------------------7----|
-----------------------7----|--9--------------------7----|
-----------------------5----|--7--------------------5----|

                                                     
----------------------------------------------------|
----------------------------------------------------|
--------------7-------------------------------------|
--9-----x--x--7-------------------------------------|
--9-----x--x--5-------------------------------------|
--7-----x--x----------------------------------------|

                             
----------------------------|
----------------------------|
--7-------------------------|
--7--------------------7----|
--5--------------------7----|
-----------------------5----|

                                                     
----------------------------------------------------|
----------------------------------------------------|
--------------------7--------9--------7-------------|
--9-----x--x--x--x--7--------9--------7-----7-------|
--9-----x--x--x--x--5--------7--------5-----7-------|
--7-----x--x--x--x--------------------------5-------|

                                                     
----------------------------------------------------|
----------------------------------------------------|
--------------------7--------9--------7-------------|
--9-----x--x--x--x--7--------9-----x--7-----7-------|
--9-----x--x--x--x--5--------7-----x--5-----7-------|
--7-----x--x--x--x-----------------x--------5-------|

                                                     
----------------------------------------------------|
----------------------------------------------------|
--------------------7--------9--------7-------------|
--9-----x--x--x--x--7--------9--------7-----7-------|
--9-----x--x--x--x--5--------7--------5-----7-------|
--7-----x--x--x--x--------------------------5-------|

                                                                
----------------------------------------------------|----------|
----------------------------------------------------|----------|
--------------------7--------9--------7-------------|----------|
--9-----x--x--x--x--7--------9--------7-----7-------|--9-------|
--9-----x--x--x--x--5--------7--------5-----7-------|--9-------|
--7-----x--x--x--x--------------------------5-------|--7-------|



Deep Purple - Smoke on the water.

----------------------------|----------------------------|
----------------------------|----------------------------|
--------3-----5-------------|-----3-----6--5-------------|
--5-----3-----5--------5----|-----3-----6--5-------------|
--5--------------------5----|----------------------------|
----------------------------|----------------------------|

                                                          
----------------------------|----------------------------|
----------------------------|----------------------------|
--------3-----5--------3----|----------------------------|
--5-----3-----5--------3----|-----5----------------------|
--5-------------------------|-----5----------------------|
----------------------------|----------------------------|

                                                          
----------------------------|----------------------------|
----------------------------|----------------------------|
--------3-----5-------------|-----3-----6--5-------------|
--5-----3-----5--------5----|-----3-----6--5-------------|
--5--------------------5----|----------------------------|
----------------------------|----------------------------|

                                                          
----------------------------|----------------------------|
----------------------------|----------------------------|
--------3-----5--------3----|----------------------------|
--5-----3-----5--------3----|-----5----------------------|
--5-------------------------|-----5----------------------|
----------------------------|----------------------------|




R.E.M. - Losing my religion.
                                                         
-----------------0----------|--0-----0-----0--0--0--0----|
--------------3-----3-------|--1-----1-----1--1--1--1----|
-----------------------2----|--2-----2-----2--2--2--2----|
----------------------------|--3-----3-----3--3--3--3----|
----------------------------|--3-----3-----3--3--3--3----|
----------------------------|----------------------------|

                                                          
-----0--0--------0----------|--0-----0-----0--0--0--0----|
-----1--1-----3-----3-------|--1-----1-----1--1--1--1----|
-----2--2--------------2----|--2-----2-----2--2--2--2----|
-----3--3-------------------|--2-----2-----2--2--2--2----|
-----3--3-------------------|--0-----0-----0--0--0--0----|
----------------------------|----------------------------|

                                                          
-----0--0--------0----------|--0-----0-----0--0--0--0----|
-----1--1-----3-----3-------|--1-----1-----1--1--1--1----|
-----2--2--------------2----|--2-----2-----2--2--2--2----|
-----2--2-------------------|--3-----3-----3--3--3--3----|
-----0--0-------------------|--3-----3-----3--3--3--3----|
----------------------------|----------------------------|

                                                          
-----0--0--------0----------|--0-----0-----0--0--0--3----|
-----1--1-----3-----3-------|--1-----1-----1--1--1--3----|
-----2--2--------------2----|--2-----2-----2--2--2--0----|
-----3--3-------------------|--2-----2-----2--2--2--0----|
-----3--3-------------------|--0-----0-----0--0--0--2----|
----------------------------|-----------------------3----|

                             
-----3--3--3--3--3--3-------|
-----0--0--0--0--0--0-------|
-----0--0--0--0--0--0-------|
-----0--0--0--0--0--0-------|
-----2--2--2--2--2--2-------|
-----3--3--3--3--3--3-------|




Led Zeppelin - Kashmir.
                                                  
----------------------------------------------------|
----------------------------------------------------|
--2--2--2-----x-----2--2--2-----x-----3--3--3-------|
--0--0--0-----x-----0--0--0-----x-----0--0--0-------|
----------------------------------------------------|
----------------------------------------------------|

                                                     
----------------------------------------------------|
----------------------------------------------------|
--x-----3--3--3-----x-----4--4--4-----x-----4--4----|
--x-----0--0--0-----x-----0--0--0-----x-----0--0----|
----------------------------------------------------|
----------------------------------------------------|

                                                     
----------------------------------------------------|
----------------------------------------------------|
--4-----x-----5--5--5-----x-----5--5--5-----x-------|
--0-----x-----0--0--0-----x-----0--0--0-----x-------|
----------------------------------------------------|
----------------------------------------------------|

                                                     
----------------------------------------------------|
----------------------------------------------------|
--7--7--7-----------2--2--2-----x-----3--3--3-------|
--0--0--0-----------0--0--0-----x-----0--0--0-------|
----------------------------------------------------|
----------------------------------------------------|

                                                     
----------------------------------------------------|
----------------------------------------------------|
--x-----3--3--3-----x-----4--4--4-----x-----4--4----|
--x-----0--0--0-----x-----0--0--0-----x-----0--0----|
----------------------------------------------------|
----------------------------------------------------|

                                                     
----------------------------------------------------|
----------------------------------------------------|
--4-----x-----5--5--5-----x-----5--5--5-----x-------|
--0-----x-----0--0--0-----x-----0--0--0-----x-------|
----------------------------------------------------|
----------------------------------------------------|

                                                     
----------------------------------------------------|
----------------------------------------------------|
--12-------11-------10-------9--------7-----6-------|
--0--------0--------0--------0--------0-----0-------|
----------------------------------------------------|
----------------------------------------------------|

                                                     
----------------------------------------------------|
----------------------------------------------------|
--5--------4--------3--------2----------------------|
--0--------0--------0--------0--------3--2--0-------|
----------------------------------------------------|
----------------------------------------------------|

                                                     
----------------------------------------------------|
----------------------------------------------------|
--12-------11-------10-------9--------7-----6-------|
--0--------0--------0--------0--------0-----0-------|
----------------------------------------------------|
----------------------------------------------------|

                                                     
----------------------------------------------------|
----------------------------------------------------|
--5--------4--------3--------2----------------------|
--0--------0--------0--------0--------3--2--0-------|
----------------------------------------------------|
----------------------------------------------------|




Tool - Schism.
                                                                             
----------------------------------------------------------------------------|
----------------------------------------------------------------------------|
----------------------------------------------------------------------------|
-----------------------------------------------------------------0h-10h12---|
----------------------------------------------------------------------------|
----------------------------------------------------------------------------|

                                                  
-------------------------------------------------|
-------------------------------------------------|
--10----------------9----------------------------|
--------------------------------------0h-10h12---|
-------------------------------------------------|
-------------------------------------------------|

                                                                    
-------------------------------------------------------------------|
-------------------------------------------------------------------|
--10----------------9-----------------12---------------------------|
--------------------------------------------------------0h-10h12---|
-------------------------------------------------------------------|
-------------------------------------------------------------------|

                                                  
-------------------------------------------------|
-------------------------------------------------|
--10----------------9----------------------------|
--------------------------------------0h-10h12---|
-------------------------------------------------|
-------------------------------------------------|

                                                                    
-------------------------------------------------------------------|
-------------------------------------------------------------------|
--10----------------9-----------------12---------------------------|
--------------------------------------------------------0h-10h12---|
-------------------------------------------------------------------|
-------------------------------------------------------------------|

                                                  
-------------------------------------------------|
-------------------------------------------------|
--10----------------9----------------------------|
--------------------------------------0h-10h12---|
-------------------------------------------------|
-------------------------------------------------|

                                                                    
-------------------------------------------------------------------|
-------------------------------------------------------------------|
--10----------------9-----------------12---------------------------|
--------------------------------------------------------0h-3h-5----|
-------------------------------------------------------------------|
-------------------------------------------------------------------|

                                                  
-------------------------------------------------|
-------------------------------------------------|
--3-----------------2----------------------------|
--------------------------------------0h-3h-5----|
-------------------------------------------------|
-------------------------------------------------|

                                                                    
-------------------------------------------------------------------|
-------------------------------------------------------------------|
--3-----------------2-----------------5----------------------------|
--------------------------------------------------------0h-3h-5----|
-------------------------------------------------------------------|
-------------------------------------------------------------------|

                                                  
-------------------------------------------------|
-------------------------------------------------|
--3-----------------2----------------------------|
--------------------------------------0h-3h-5----|
-------------------------------------------------|
-------------------------------------------------|

                                                                    
-------------------------------------------------------------------|
-------------------------------------------------------------------|
--3-----------------2-----------------5----------------------------|
--------------------------------------------------------0h-3h-5----|
-------------------------------------------------------------------|
-------------------------------------------------------------------|

                                                  
-------------------------------------------------|
-------------------------------------------------|
--3-----------------2----------------------------|
--------------------------------------0h-3h-5----|
-------------------------------------------------|
-------------------------------------------------|

                                                                    
-------------------------------------------------------------------|
-------------------------------------------------------------------|
--3-----------------2-----------------5----------------------------|
--------------------------------------------------------0h-3h-5----|
-------------------------------------------------------------------|
-------------------------------------------------------------------|

                                                                            
-------------------------------------------------|-------------------------|
-------------------------------------------------|-------------------------|
--3-----------------2----------------------------|--3-----2-----5----------|
--------------------------------------0h-3h-5----|--------------------0----|
-------------------------------------------------|-------------------------|
-------------------------------------------------|-------------------------|

                                                                         
-------------------|
-------------------|
--7----------------|
--0----------------|
--0----------------|
-------------------|




System of a Down - Toxicity.

----------------------------------------------------|
----------------------------------------------------|
--5-----5--5--5--5--5-----5--5--5--5--5-----5--5----|
--7-----x--x--x--x--7-----x--x--x--x--7-----x--x----|
--0-----------------0-----------------0-------------|
----------------------------------------------------|

                                                     
----------------------------------------------------|
----------------------------------------------------|
--7-----7--7--7--7--7-----7--7--7--7--7-----7-------|
--9-----x--x--x--x--9-----x--x--x--x--9-----9-------|
--0-----------------0-----------------0-----0-------|
----------------------------------------------------|

                                                     
----------------------------------------------------|
----------------------------------------------------|
--4-----4--4--4--4--4-----4--4--4--4--4-----4--4----|
--5-----x--x--x--x--5-----x--x--x--x--5-----x--x----|
--0-----------------0-----------------0-------------|
----------------------------------------------------|

                                                     
----------------------------------------------------|
----------------------------------------------------|
--2-----2--2--2--2--2-----2--2--2--2--2-----2-------|
--3-----x--x--x--x--3-----x--x--x--x--3-----3-------|
--0-----------------0-----------------0-----0-------|
----------------------------------------------------|

                                                     
----------------------------------------------------|
----------------------------------------------------|
--5-----5--5--5--5--5-----5--5--5--5--5-----5--5----|
--7-----x--x--x--x--7-----x--x--x--x--7-----x--x----|
--0-----------------0-----------------0-------------|
----------------------------------------------------|

                                                     
----------------------------------------------------|
----------------------------------------------------|
--7-----7--7--7--7--7-----7--7--7--7--7-----7-------|
--9-----x--x--x--x--9-----x--x--x--x--9-----9-------|
--0-----------------0-----------------0-----0-------|
----------------------------------------------------|

                                                     
----------------------------------------------------|
----------------------------------------------------|
--4-----4--4--4--4--4-----4--4--4--4--4-----4--4----|
--5-----x--x--x--x--5-----x--x--x--x--5-----x--x----|
--0-----------------0-----------------0-------------|
----------------------------------------------------|

                                                     
----------------------------------------------------|
----------------------------------------------------|
--2-----2--2--2--2--2-----2--2--2--2--2-----2-------|
--3-----x--x--x--x--3-----x--x--x--x--3-----3-------|
--0-----------------0-----------------0-----0-------|
----------------------------------------------------|

                                                     
----------------------------------------------------|
----------------------------------------------------|
----------------------------------------------------|
----------------------------------------------------|
--7--7--7--7--7--7--7--7--7--7--7--7--7--7--7--7----|
--5--5--5--5--5--5--5--5--5--5--5--5--5--5--5--5----|

                                                     
----------------------------------------------------|
----------------------------------------------------|
----------------------------------------------------|
----------------------------------------------------|
--6--6--6--6--6--6--6--6--6--6--6--6--6--6--6--6----|
--4--4--4--4--4--4--4--4--4--4--4--4--4--4--4--4----|

                                                     
----------------------------------------------------|
----------------------------------------------------|
----------------------------------------------------|
----------------------------------------------------|
--9--9--9--9--9--9--9--9--9--9--9--9--9--9--9--9----|
--7--7--7--7--7--7--7--7--7--7--7--7--7--7--7--7----|

                                                     
----------------------------------------------------|
----------------------------------------------------|
----------------------------------------------------|
----------------------------------------------------|
--12-12-12-12-12-12-12-12-12-12-12-12-12-12-12-12---|
--10-10-10-10-10-10-10-10-10-10-10-10-10-10-10-10---|

                                                     
----------------------------------------------------|
----------------------------------------------------|
----------------------------------------------------|
----------------------------------------------------|
--7--7--7--7--7--7--7--7--7--7--7--7--7--7--7--7----|
--5--5--5--5--5--5--5--5--5--5--5--5--5--5--5--5----|

                                                     
----------------------------------------------------|
----------------------------------------------------|
----------------------------------------------------|
----------------------------------------------------|
--6--6--6--6--6--6--6--6--6--6--6--6--6--6--6--6----|
--4--4--4--4--4--4--4--4--4--4--4--4--4--4--4--4----|

                                                     
----------------------------------------------------|
----------------------------------------------------|
----------------------------------------------------|
----------------------------------------------------|
--9--9--9--9--9--9--9--9--9--9--9--9--9--9--9--9----|
--7--7--7--7--7--7--7--7--7--7--7--7--7--7--7--7----|

                                                     
----------------------------------------------------|
----------------------------------------------------|
----------------------------------------------------|
----------------------------------------------------|
--12-12-12-12-12-12-12-12-12-12-12-12-12-12-12-12---|
--10-10-10-10-10-10-10-10-10-10-10-10-10-10-10-10---|

                                                     
----------------------------------------------------|
----------------------------------------------------|
----------------------------------------------------|
----------------------------------------------------|
--8--7----------------------------------------------|
--6--5----------------------------------------------|




The Allman Brothers - Jessica.
                                                     
-----------------9-----10----12-------10----9-------|
--------------10-------------------------------10---|
-----------9----------------------------------------|
----------------------------------------------------|
----------------------------------------------------|
----------------------------------------------------|

                                                                                
-------------------------------------------------------------------------------|
-------------------------------------------------------------------------------|
-----------9--------------------------------------------------------------9----|
--------------------------------------12----------11----------12---------------|
-------------------------------------------------------------------------------|
-------------------------------------------------------------------------------|

                                                                     
                                                     
-----------------9-----10-------9-------------------|
--------------10----------------------10------------|
-----------9-----------------------------9----------|
-----------------------------------------------12---|
----------------------------------------------------|
----------------------------------------------------|

                             
----------------------------|
----------------------------|
-----------9----------------|
-----11-12------------------|
--------------12------------|
----------------------------|

                                                     
-----------------9-----10----12-------10----9-------|
--------------10-------------------------------10---|
-----------9----------------------------------------|
----------------------------------------------------|
----------------------------------------------------|
----------------------------------------------------|

                                                                                
--------------------------------------------------------|
--------------------------------------------------------|
----9----------------------------------9-----11-----9---|
-------------------12-----11----12----------------------|
--------------------------------------------------------|
--------------------------------------------------------|

                                                     
-----------------9-----10-------9-------------------|
--------------10----------------------10------------|
-----------9-----------------------------9----------|
-----------------------------------------------12---|
----------------------------------------------------|
----------------------------------------------------|

                                                                                
----------------------------|----------------|----------------|-----15-12------|
----------------------------|----------------|--------12-13---|--15------------|
-----------9----------------|-----------11---|--12-14---------|----------------|
-----11-12------------------|--10-12-14------|----------------|----------------|
--------------12----14------|----------------|----------------|----------------|
----------------------------|----------------|----------------|----------------|

                                                     
----------------------------------------------------|
--2-----------2--------------3--3-----3-----0-------|
--2-----------2--------------2--2-----2-----0-------|
--2-----------2--------------0--0-----0-----0-------|
--0-----------0-------------------------------------|
----------------------------------------------------|

                                                     
--0-----------0-------------------------------------|
--0-----------0--------------3--3-----3-----0-------|
--1-----------1--------------2--2-----2-----0-------|
--2-----------2--------------0--0-----0-----0-------|
--2-----------2-------------------------------------|
--0-----------0-------------------------------------|

                                                     
----------------------------------------------------|
--2-----------2--------------3--3-----3-----0-------|
--2-----------2--------------2--2-----2-----0-------|
--2-----------2--------------0--0-----0-----0-------|
--0-----------0-------------------------------------|
----------------------------------------------------|

                                                     
--0-----------0-------------------------------------|
--0-----------0--------------3--3-----3-----0-------|
--1-----------1--------------2--2-----2-----0-------|
--2-----------2--------------0--0-----0-----0-------|
--2-----------2-------------------------------------|
--0-----------0-------------------------------------|

                                                     
----------------------------------------------------|
--2-----------2--------------3--3-----3-----0-------|
--2-----------2--------------2--2-----2-----0-------|
--2-----------2--------------0--0-----0-----0-------|
--0-----------0-------------------------------------|
----------------------------------------------------|

                                                                          
--0--0--0--0----------------|-------|----------------------------|-------|
--0--0--0--0-----0--2--0----|--2----|-----------------0--2--0----|--2----|
--1--1--1--1-----0--2--0----|--2----|-----------------0--2--0----|--2----|
--2--2--2--2-----0--2--0----|--2----|-----------------0--2--0----|--2----|
--2--2--2--2-----0--0--0----|--0----|-----------------0--0--0----|--0----|
--0--0--0--0----------------|-------|----------------------------|-------|




Green Day - Good Ridance - Time of your life.
                                                          
----------------------------|----------------------------|
-----------3----------------|-----------3----------------|
--------0--------0-----0----|--------0--------0-----0----|
--------------------0-------|--------------------0-------|
----------------------------|----------------------------|
--3-------------------------|--3-------------------------|

                                                          
----------------------------|----------------------------|
-----------3----------------|-----------3----------------|
--------0--------0-----0----|--------2--------2-----0----|
----------------------------|--0-----------------0-------|
--3-----------------3-------|----------------------------|
----------------------------|----------------------------|

                                                          
----------------------------|----------------------------|
-----------3----------------|-----------3----------------|
--------0--------0-----0----|--------0--------0-----0----|
--------------------0-------|--------------------0-------|
----------------------------|----------------------------|
--3-------------------------|--3-------------------------|


----------------------------|----------------------------|--3----|
-----------3----------------|-----------3----------------|--3----|
--------0--------0-----0----|--------2--------2--2p-0----|--0----|
----------------------------|--0-------------------------|--0----|
--3-----------------3-------|----------------------------|-------|
----------------------------|----------------------------|--3----|



George Baker Selection - Little Green Bag.

----------------------------|----------------------------|
----------------------------|----------------------------|
--0--------0--3--0-----0----|--0-------------------------|
--------3-----------3-------|-----3-----0----------------|
----------------------------|--------3-------------------|
----------------------------|----------------------------|


----------------------------|
----------------------------|
----------------------------|
--0--------0--3--0-----0----|
--------3-----------3-------|
----------------------------|


----------------------------------------------------|
----------------------------------------------------|
--------0-----3-----0-------------------------------|
--3--------------------------------------0--3-------|
----------------------------------------------------|
----------------------------------------------------|


----------------------------------------------------|
----------------------------------------------------|
--0--------------0--------3--0-----------0----------|
--------------3-----------------------3-------------|
----------------------------------------------------|
----------------------------------------------------|


----------------------------------------------------|
----------------------------------------------------|
----------------------------------------------------|
----------------------------------------------------|
--------3-----4-----5--------------------0--3-------|
----------------------------------------------------|


----------------------------------------------------|
----------------------------------------------------|
----------------------------------------------------|
--0--------------0--------3--0-----------0----------|
--------------3-----------------------3-------------|
----------------------------------------------------|


----------------------------||
----------------------------||
----------------------------||
-----3--4--5----------------||
----------------------------||
----------------------------||

Добавлено: 03.11.2015
Другие материалы по этой песне:
  • Аккорды и текст

Страница создана 03.11.2015
http://primanota.ru/misc/101-guitar-riffs-made-easier-for-beginners-part-4-chords.htm
Привет, Гость.
Предлагаем пройти революционный курс по гитаре.
Подарок от PrimaNota.Ru, забирай!