PrimaNota.ru - самый крупный в мире бесплатный архив песенных текстов, аккордов, табулатур и нот


Misc - 101 Guitar Riffs Made Easier For Beginners Part 3 - таба, видео

Регистрация Запомнить меня
Войти через:  Facebook Google Twitter Vk Yandex Mail.ru

Misc - 101 Guitar Riffs Made Easier For Beginners Part 3 - таба, видео

Печатать
Просмотров: 84
Part 3, Riffs 41 - 60

Some of these songs are different from the originals due to changes in tunings or complexity.

Tabber: BadBikaDamo

Guitar Pro version also available

Legend
x - dead note
h - hammer on
p - pull off
b - bend
r - release bend
s - slide
L - tied note




The Who - Can't explain.

E |----------------------------|--5-------------------------|
B |--9-----------7--7----------|--5-----------9--9----------|
G |--9-----------7--7----------|--6-----------9--9----------|
D |--9-----------7--7----------|--7-----------9--9----------|
A |--7-----------5--5----------|--7-----------7--7----------|
E |----------------------------|--5-------------------------|


----------------------------|--5-------------------------|
--9-----------7--7----------|--5-----------9--9----------|
--9-----------7--7----------|--6-----------9--9----------|
--9-----------7--7----------|--7-----------9--9----------|
--7-----------5--5----------|--7-----------7--7----------|
----------------------------|--5-------------------------|


----------------------------|--5-------------------------|
--9-----------7--7----------|--5-----------9--9----------|
--9-----------7--7----------|--6-----------9--9----------|
--9-----------7--7----------|--7-----------9--9----------|
--7-----------5--5----------|--7-----------7--7----------|
----------------------------|--5-------------------------|


----------------------------|--5-------------------------|
--9-----------7--7----------|--5-----------9--9----------|
--9-----------7--7----------|--6-----------9--9----------|
--9-----------7--7----------|--7-----------9--9----------|
--7-----------5--5----------|--7-----------7--7----------|
----------------------------|--5-------------------------|




Queens Of The Stoneage - No one knows.

----------------|
--8-----8-------|
--x-----x-------|
--9-----9-------|
--7-----7-------|
----------------|


----------------|----------------------------|----------------------------|
--8-----8-------|--------10----10-8----------|--10----10-8----------------|
--x-----x-------|--------x-----x--x--9-------|--x-----x--x--9-------------|
--9-----9-------|--------9-----9--9--9-------|--9-----9--9--9-------------|
--7-----7-------|--------7-----7--7--7-------|--7-----7--7--7-------------|
-----------12s--|--0-------------------------|--------------------12s-----|


----------------------------|----------------------------|
--------10----10-8----------|--10----10-8----------------|
--------x-----x--x--9-------|--x-----x--x--9-------------|
--------9-----9--9--9-------|--9-----9--9--9-------------|
--------7-----7--7--7-------|--7-----7--7--7-------------|
--0-------------------------|--------------------12s-----|


----------------------------|----------------------------|
--------10----10-8----------|--10----10L--(10)b----------|
--------x-----x--x--9-------|--x-----x-------------------|
--------9-----9--9--9-------|--9-----9L---(9)------------|
--------7-----7--7--7-------|--7-----7L---(7)------------|
--0-------------------------|--------------------12s-----|


----------------------------|----------------------------|
--------10----10-8----------|--10----7harmonic-----------|
--------x-----x--x--9-------|--x-----7-------------------|
--------9-----9--9--9-------|--9-------------------------|
--------7-----7--7--7-------|--7-------------------------|
--0-------------------------|----------------------------|




Focus - Hocus pocus.

----------------------------|----------------------------|
----------------------------|----------------------------|
----------------------------|----------------------------|
--5h-7-----7--7~------------|--5h-7-----7--7~------------|
--0-----0-----------0--0----|--0-----0-----------0-------|
----------------------------|----------------------------|


----------------------------|----------------|----------------------------|
----------------------------|----------------|----------------------------|
--9-----9-------------------|--------7-------|----------------------------|
--9-----10----------10------|--------6-------|--5h-7-----7--7~------------|
--7-----8-----------10------|--------7-------|--0-----0-----------0--0----|
--------------------8-------|-----6----------|----------------------------|


----------------------------|----------------|----------------|
----------------------------|----------------|----------------|
----------------------------|--9--9----------|--------9-------|
--5h-7-----7--7~------------|--9--10----10---|--------9-------|
--0-----0-----------0-------|--7--8-----10---|--------7-------|
----------------------------|-----------8----|-----6-----0----|


----------------------------|----------------------------|
----------------------------|----------------------------|
----------------------------|----------------------------|
--7-----x--10----x--12------|--------------------x--x----|
--7-----x--10----x--12------|--------------------x--x----|
----------------------------|----------------------------|


----------------------------|---------|----------------|
----------------------------|---------|--8-------------|
-----------10-------12L-----|--(12)~--|--7-------------|
--12-------10-------12L-----|--(12)---|--6-------------|
--12------------------------|---------|--7-------------|
----------------------------|---------|----------------|




Radiohead - No surprises.

--17----------17------------|--17-------------------15---|
--------18----------18------|--------18----------18------|
-----17----17----17----17---|-----17----17-15-18---------|
----------------------------|----------------------------|
----------------------------|----------------------------|
----------------------------|----------------------------|


--17----------17------------|--17-------------------15---|
--------18----------18------|--------18----------18------|
-----17----17----17----17---|-----17----17-15-18---------|
----------------------------|----------------------------|
----------------------------|----------------------------|
----------------------------|----------------------------|


--17----------17------------|--17-------------------15---|
--------18----------18------|--------18----------18------|
-----17----17----17----17---|-----17----17-15-18---------|
----------------------------|----------------------------|
----------------------------|----------------------------|
----------------------------|----------------------------|


--17----------17------------|--17-------------------15---|
--------18----------18------|--------18----------18------|
-----17----17----17----17---|-----17----17-15-18---------|
----------------------------|----------------------------|
----------------------------|----------------------------|
----------------------------|----------------------------|




Guns n Roses - Sweet child o' mine.

--------------15----14------|--------------15----14------|
-----15---------------------|-----15---------------------|
--------14-12----14----14---|--------14-12----14----14---|
--12------------------------|--12------------------------|
----------------------------|----------------------------|
----------------------------|----------------------------|


--------------15----14------|--------------15----14------|
-----15---------------------|-----15---------------------|
--------14-12----14----14---|--------14-12----14----14---|
--14------------------------|--14------------------------|
----------------------------|----------------------------|
----------------------------|----------------------------|


--------------15----14------|--------------15----14------|
-----15---------------------|-----15---------------------|
--12----14-12----14----14---|--12----14-12----14----14---|
----------------------------|----------------------------|
----------------------------|----------------------------|
----------------------------|----------------------------|


--12----------12----14------|--15----14----12------------|-------|
--------15------------------|--------------------15------|--15---|
-----14----14----14----14---|-----14----14----14----14---|--14---|
----------------------------|----------------------------|-------|
----------------------------|----------------------------|-------|
----------------------------|----------------------------|-------|




Queen - another one bites the dust.

----------------------------------------------------|
----------------------------------------------------|
----------------------------------------------------|
--------------------------------------------7--5----|
----------------------------------------------------|
----------------------------------------------------|


----------------------------------------------------|
----------------------------------------------------|
----------------------------------------------------|
----------------------------------------------------|
--7-----------7-----------7--------------------7----|
----------------------------------------------------|


----------------------------------------------------|
----------------------------------------------------|
----------------------------------------------------|
--------------5--------7----------------------------|
--7-----7-----------7-------------------------------|
----------------------------------------------------|


----------------------------------------------------|
----------------------------------------------------|
----------------------------------------------------|
----------------------------------------------------|
--7-----------7-----------7--------------------7----|
----------------------------------------------------|


----------------------------------------------------|
----------------------------------------------------|
----------------------------------------------------|
--------------5--------7----------------------------|
--7-----7-----------7-------------------------------|
----------------------------------------------------|


----------------------------------------------------|
----------------------------------------------------|
----------------------------------------------------|
----------------------------------------------------|
--7-----------7-----------7--------------------7----|
----------------------------------------------------|


----------------------------------------------------|
----------------------------------------------------|
----------------------------------------------------|
--------------5--------7----------------------------|
--7-----7-----------7-------------------------------|
----------------------------------------------------|


----------------------------------------------------|
----------------------------------------------------|
----------------------------------------------------|
-----------------------------5----------------------|
--3-----3--------3-----4--5-------------------------|
--------------------------------------3-------------|


----------------------------------------------------|
----------------------------------------------------|
----------------------------------------------------|
----------------------------------------------------|
--3-----3--------3-----4--5-------------------------|
--------------------------------------3-------------|


----------------------------------------------------|
----------------------------------------------------|
----------------------------------------------------|
-----------------------------5----------------------|
--3-----3--------3-----4--5-------------------------|
--------------------------------------3-------------|


----------------------------------------------------|
----------------------------------------------------|
----------------------------------------------------|
----------------------------------------------------|
----------------------------------------------------|
--5-----5--------5-----6--7-------------------------|




The Rolling Stones - (I can't get no) satisfaction.

----------------------------|----------------------------|
----------------------------|----------------------------|
----------------------------|----------------------------|
----------------------------|----------------------------|
--2-----2--------2--4--5----|-----------5--5h-4--4s-2----|
----------------------------|----------------------------|


----------------------------|----------------------------|
----------------------------|----------------------------|
----------------------------|----------------------------|
----------------------------|----------------------------|
--2-----2--------2--4--5----|-----------5--5h-4--4s-2----|
----------------------------|----------------------------|


----------------------------|----------------------------|
----------------------------|----------------------------|
----------------------------|----------------------------|
----------------------------|----------------------------|
--2-----2--------2--4--5----|-----------5--5h-4--4s-2----|
----------------------------|----------------------------|


----------------------------|----------------------------|
----------------------------|----------------------------|
----------------------------|----------------------------|
----------------------------|----------------------------|
--2-----2--------2--4--5----|-----------5--5h-4--4s-2----|
----------------------------|----------------------------|




The Beatles - Day tripper

----------------------------|----------------------------|
----------------------------|----------------------------|
----------------------------|----------------------------|
--------------------2--0----|-----------4--------0--2----|
-----------------2----------|--------2--------2----------|
--0--------3--4-------------|----------------------------|


----------------------------|----------------------------|
----------------------------|----------------------------|
----------------------------|----------------------------|
--------------------2--0----|-----------4--------0--2----|
-----------------2----------|--------2--------2----------|
--0--------3--4-------------|----------------------------|


----------------------------|----------------------------|
----------------------------|----------------------------|
----------------------------|----------------------------|
--------------------2--0----|-----------4--------0--2----|
-----------------2----------|--------2--------2----------|
--0--------3--4-------------|----------------------------|


----------------------------|----------------------------|
----------------------------|----------------------------|
----------------------------|----------------------------|
--------------------2--0----|-----------4--------0--2----|
-----------------2----------|--------2--------2----------|
--0--------3--4-------------|----------------------------|




The White Stripes - Seven nation army.

----------------------------------------------------|----------|
----------------------------------------------------|----------|
----------------------------------------------------|----------|
----------------------------------------------------|----------|
--7-----------------7-----10-------7--------5-------|--3--2----|
----------------------------------------------------|----------|


----------------------------------------------------|----------|
----------------------------------------------------|----------|
----------------------------------------------------|----------|
----------------------------------------------------|----------|
--7-----------------7-----10-------7--------5-------|--3--2----|
----------------------------------------------------|----------|


----------------------------------------------------|----------|
----------------------------------------------------|----------|
----------------------------------------------------|----------|
----------------------------------------------------|----------|
--7-----------------7-----10-------7--------5-------|--3--2----|
----------------------------------------------------|----------|


----------------------------------------------------|----------|
----------------------------------------------------|----------|
----------------------------------------------------|----------|
----------------------------------------------------|----------|
--7-----------------7-----10-------7--------5-------|--3--2----|
----------------------------------------------------|----------|


----------------------------|--------------------5--5----|
----------------------------|-----------------5--5--5----|
----------------------------|--------------6--6--6--6----|
--5--5--5--5--5--5--5--5----|--7--7--7--7--7--7--7--7----|
--5--5--5--5--5--5--5--5----|--7--7--7--7--7--7--7--7----|
--3--3--3--3--3--3--3--3----|--5--5--5--5--5--5--5--5----|


----------------------------------------------------|----------|
----------------------------------------------------|----------|
--9-----------------9s----12-------9--------7-------|--5--4----|
--9-----------------9s----12-------9--------7-------|--5--4----|
--7-----------------7s----10-------7--------5-------|--3--2----|
----------------------------------------------------|----------|


----------------------------------------------------|
----------------------------------------------------|
--9-----------------9s----12-------9--------7-------|
--9-----------------9s----12-------9--------7-------|
--7-----------------7s----10-------7--------5-------|
----------------------------------------------------|


----------------------------------------------------|
----------------------------------------------------|
--5--------7--------5-----4-------------------------|
--5--------7--------5-----4-------------------------|
--3--------5--------3-----2-------------------------|
----------------------------------------------------|


----------------------------------------------------|----------|
----------------------------------------------------|----------|
--9-----------------9s----12-------9--------7-------|--5--4----|
--9-----------------9s----12-------9--------7-------|--5--4----|
--7-----------------7s----10-------7--------5-------|--3--2----|
----------------------------------------------------|----------|


----------------------------------------------------|
----------------------------------------------------|
--9-----------------9s----12-------9--------7-------|
--9-----------------9s----12-------9--------7-------|
--7-----------------7s----10-------7--------5-------|
----------------------------------------------------|


----------------------------------------------------|
----------------------------------------------------|
--5--------7--------5-----4-------------------------|
--5--------7--------5-----4-------------------------|
--3--------5--------3-----2-------------------------|
----------------------------------------------------|




Pink Floyd - Money

----------------------------------------------|
----------------------------------------------|
--------4-------------------------------------|
-----------4----------------------------------|
--2-----------2-----------------2-----5b------|
--------------------2-----5-------------------|


----------------------------------------------|
----------------------------------------------|
--------4-------------------------------------|
-----------4----------------------------------|
--2-----------2-----------------2-----5b------|
--------------------2-----5-------------------|


----------------------------------------------|
----------------------------------------------|
----------------------------------------------|
----------------------------------------------|
--2-----5b----2-----------------2--0--5b------|
--------------------2-----5-------------------|


----------------------------------------------|
----------------------------------------------|
--------4-------------------------------------|
-----------4----------------------------------|
--2-----------2-----------------2-----5b------|
--------------------2-----5-------------------|


----------------------------------------------|
----------------------------------------------|
--------4-------------------------------------|
-----------4----------------------------------|
--2-----------2-----------------2-----5b------|
--------------------2-----5-------------------|


----------------------------------------------|
----------------------------------------------|
--------4-------------------------------------|
-----------4----------------------------------|
--2-----------2-----------------2-----5b------|
--------------------2-----5-------------------|


----------------------------------------------|
----------------------------------------------|
----------------------------------------------|
----------------------------------------------|
--2-----5b----2-----------------2--0--5b------|
--------------------2-----5-------------------|


----------------------------------------------|----------------------------|
----------------------------------------------|----------------------------|
--------4-------------------------------------|----------------------------|
-----------4----------------------------------|--4-----4-----4-------------|
--2-----------2-----------------2-----5b------|-----------------4----------|
--------------------2-----5-------------------|--------------------2-------|


----------------|----------------------------------------|
----------------|----------------------------------------|
----------------|----------------------------------------|
--------4--3----|--2-------------------------------------|
-----4----------|-----2--------------0-----2-----5b------|
--5-------------|--------0-----3-------------------------|


----------------------------------------|-------------------------------|
----------------------------------------|-------------------------------|
--4--4--4--4--4--4--4--4--4--4--4--4----|--4--4--4--4--4--4--4----------|
--4--4--4--4--4--4--4--4--4--4--4--4----|--4--4--4--4--4--4--4----------|
--2--2--2--2--2--2--2--2--2--2--2--2----|--2--2--2--2--2--2--2----------|
----------------------------------------|-------------------------------|




Nirvana - Smells like teen spirit.

----------------------------------------------------|
--------------------x--x--x--x--3-----3-----x--x----|
--------------------x--x--x--x--3-----3-----x--x----|
--3--------3--3-----x--x--x--x--3-----3-----x--x----|
--3--------3--3-----x--x--x--x--1-----1-----x--x----|
--1--------1--1-------------------------------------|


----------------------------------------------------|
--------------------------------6-----6-----x--x----|
--6--------6--6-----x--x--x--x--6-----6-----x--x----|
--6--------6--6-----x--x--x--x--6-----6-----x--x----|
--6--------6--6-----x--x--x--x--4-----4-----x--x----|
--4--------4--4-----x--x--x--x----------------------|


----------------------------------------------------|
--------------------x--x--x--x--3-----3-----x--x----|
--------------------x--x--x--x--3-----3-----x--x----|
--3--------3--3-----x--x--x--x--3-----3-----x--x----|
--3--------3--3-----x--x--x--x--1-----1-----x--x----|
--1--------1--1-------------------------------------|


----------------------------------------------------|
--------------------------------6-----6-----x--x----|
--6--------6--6-----x--x--x--x--6-----6-----x--x----|
--6--------6--6-----x--x--x--x--6-----6-----x--x----|
--6--------6--6-----x--x--x--x--4-----4-----x--x----|
--4--------4--4-----x--x--x--x----------------------|


----------------------------|
-----------6----------------|
--------5-------------------|
----------------------------|
----------------------------|
----------------------------|




Lynyrd Skynyrd - Sweet home Alabama.

----------------------------------------------------|
--------------3-----------------------3-------------|
-----------------2-----------------------0----------|
--0-----0-------------------------------------------|
--------------------------3-----3-------------------|
----------------------------------------------------|


----------------------------------------------------|
----------------------------------------------------|
--------------0-----------------------------2p-0----|
--------------------------------0h-2p-0-------------|
--------------------------0h-2-----------2----------|
--3-----3-------------------------------------------|


----------------------------------------------------|
--------------3-----------------------3-------------|
-----------------2-----------------------0----------|
--0-----0--------------0-----------------------0----|
--------------------------3-----3-------------------|
----------------------------------------------------|


----------------------------------------------------|
----------------------------------------------------|
--------------0--------0--2p-0--0--4p-0--0--5b------|
----------------------------------------------------|
----------------------------------------------------|
--3-----3-------------------------------------------|


----------------------------------------------------|
--------------3-----------------------3--------3----|
--------------2-----------------------0--------0----|
--0-----0--------------0----------------------------|
--------------------------3-----3-------------------|
----------------------------------------------------|


----------------------------------------------------|
--------------3-----3-------------------------------|
--------------0-----0-----------------------2p-0----|
--------------------------------0h-2p-0-------------|
--------------------------0h-2-----------2----------|
--3-----3-------------------------------------------|




Cream - Sunshine of your love.

----------------------------|----------------------------|
----------------------------|----------------------------|
----------------------------|----------------------------|
--12-12-10-12---------------|----------------------------|
-----------------12----11---|-----10-------8~------------|
----------------------------|-----------10-------10------|


----------------------------|----------------------------|
----------------------------|----------------------------|
----------------------------|----------------------------|
--12-12-10-12---------------|----------------------------|
-----------------12----11---|-----10-------8~------------|
----------------------------|-----------10-------10------|


----------------------------|----------------------------|
----------------------------|----------------------------|
----------------------------|----------------------------|
--12-12-10-12---------------|----------------------------|
-----------------12----11---|-----10-------8~------------|
----------------------------|-----------10-------10------|




Fleetwood Mac - Oh well.

----------------|
----------------|
----------------|
----------------|
----------------|
-----0h-3p-0----|

----------------------------------------------------|
----------------------------------------------------|
----------------------------------------------------|
--------0-------------------------------------------|
--0h-2--------2p-0----------------------------------|
--------------------3p-0--0--0-----0-----0h-3p-0----|


----------------------------------------------------|
----------------------------------------------------|
----------------------------------------------------|
--------0-----------2-------------------------------|
--0h-2--------0h-2----------------------------------|
--------------------------0--0-----0-----0h-3p-0----|


----------------------------------------------------|
----------------------------------------------------|
----------------------------------------------------|
--------0-------------------------------------------|
--0h-2--------2p-0----------------------------------|
--------------------3p-0--0--0-----0-----0h-3p-0----|


----------------------------------------------------|
----------------------------------------------------|
----------------------------------------------------|
--------0h-2--0-------------------------------------|
--0h-2-----------2p-0-------------------------------|
-----------------------3p-2p-0-----0-----0h-3p-0----|


----------------------------------------------------|
----------------------------------------------------|
----------------------------------------------------|
--------0-------------------------------------------|
--0h-2--------2p-0----------------------------------|
--------------------3p-0--0--0-----0-----0h-3p-0----|


----------------------------------------------------|
----------------------------------------------------|
----------------------------------------------------|
--------0-----------2-------------------------------|
--0h-2--------0h-2----------------------------------|
--------------------------0--0-----0-----0h-3p-0----|


----------------------------------------------------|
----------------------------------------------------|
----------------------------------------------------|
--------0-------------------------------------------|
--0h-2--------2p-0----------------------------------|
--------------------3p-0--0--0-----0-----0h-3p-0----|


----------------------------------------------------|
----------------------------------------------------|
----------------------------------------------------|
--------0h-2--0-------------------------------------|
--0h-2-----------2p-0-------------------------------|
-----------------------3p-2p-0-----0-----0----------|


----------------------------|----------------------------|-------|
----------------------------|----------------------------|-------|
----------------------------|----------------------------|-------|
----------------------------|----------------------------|-------|
--------------------0--2----|--3-----2--0-----0--2-------|-------|
--0s----5-------------------|--------------3-------------|--0----|




Free - allright now.

easy version
----------------------------|----------------------------|
----------------------------|----------------------------|
--2-----------------7-------|--2-------------------------|
--2-----------------7-------|--2-------------------------|
--0--------------0--5-------|--0--------------------0----|
----------------------------|----------------------------|


----------------------------------------------------|----------------|
----------------------------------------------------|----------------|
--7--7-----7--7-----------7--7-----7--7-----2-------|--2-------------|
--5--5-----5--5-----------7--7-----7--7-----2-------|--2-------------|
--5--5-----5--5-----0-----5--5-----5--5-----0-------|--0-------------|
----------------------------------------------------|----------------|

correct version
----------------------------|----------------------------|
--5-----------------3-------|--5-------------------------|
--2-----------------2-------|--2-------------------------|
--2-----------------4-------|--2-------------------------|
--0--------------0----------|--0--------------------0----|
----------------------------|----------------------------|


----------------------------------------------------|----------------|
--3--3-----3--3-----------3--3-----3--3-------------|--5-------------|
--0--0-----0--0-----------2--2-----2--2-----2-------|--2-------------|
--4--4-----4--4-----------4--4-----4--4-----2-------|--2-------------|
--------------------0-----------------------0-------|--0-------------|
----------------------------------------------------|----------------|




Black Sabbath - Paranoid.

----------------------------------------------------|
----------------------------------------------------|
----------------------------------------------------|
----------------------------------------------------|
--12h14-------------12h14-------------12h14---------|
--12----------------12----------------12------------|


----------------------------|
----------------------------|
----------------------------|
--------12h14-------12------|
--12h14-------12h14----14---|
----------------------------|


----------------------------------------------------|
----------------------------------------------------|
----------------------------------------------------|
----------------------------------------------------|
--12h14-------------12h14-------------12h14---------|
--12----------------12----------------12------------|


----------------------------|
----------------------------|
----------------------------|
--------12h14-------12------|
--12h14-------12h14----14---|
----------------------------|


----------------------------------------------------|
----------------------------------------------------|
----------------------------------------------------|
----------------------------------------------------|
--12h14-------------12h14-------------12h14---------|
--12----------------12----------------12------------|


----------------------------|
----------------------------|
----------------------------|
--------12h14-------12------|
--12h14-------12h14----14---|
----------------------------|


----------------------------------------------------|
----------------------------------------------------|
----------------------------------------------------|
----------------------------------------------------|
--12h14-------------12h14-------------12h14---------|
--12----------------12----------------12------------|


----------------------------|----------------------------|
----------------------------|----------------------------|
----------------------------|----------------------------|
--------12h14-------12------|----------------------------|
--12h14-------12h14----14---|--14-14-14-14-14-14-14-14---|
----------------------------|--12-12-12-12-12-12-12-12---|


----------------------------|----------------------------|
----------------------------|----------------------------|
----------------------------|----------------------------|
----------------------------|----------------------------|
--14-14-14-14-14-14-14-14---|--12-12-12-12-12-12-12------|
--12-12-12-12-12-12-12-12---|--10-10-10-10-10-10-10------|


----------------------------|----------------------------|
--------------------12------|----------------------------|
--------------------12------|----------------------------|
--12----------------12------|----------------------------|
--10-12-------14------------|--14-14-14-14-14-14-14-14---|
-----10-------12------------|--12-12-12-12-12-12-12-12---|


----------------------------|----------------------------|
----------------------------|----------------------------|
----------------------------|----------------------------|
--------------------12h14---|----------------------------|
--14-14-14-14-12h14---------|--12-12-12-12-12-12-12------|
--12-12-12-12---------------|--10-10-10-10-10-10-10------|


----------------------------|
----------------------------|
----------------------------|
--12------------------------|
--10-12-------14------------|
-----10-------12------------|




Bon Jovi - Wanted, dead or alive.

--------13----------12----------10----------8-------|
----------------------------------------------------|
-----14----14----12----12----10----10----9-----9----|
--0-----------0-----------0-----------0-------------|
----------------------------------------------------|
----------------------------------------------------|


--------5-----------3-----------1-------------------|
----------------------------------------------------|
-----5-----5-----4-----4--4s-2----------------------|
--0-----------0--------------------------------0----|
----------------------------------------------------|
----------------------------------------------------|


--------13----------12----------10----------8-------|
----------------------------------------------------|
-----14----14----12----12----10----10----9-----9----|
--------------0-----------0-----------0-------------|
----------------------------------------------------|
----------------------------------------------------|


--------5-----------3-----------1-------------------|
----------------------------------------------------|
-----5-----5-----4-----4--4s-2----------------------|
--0-----------0-------------------------------------|
--------------------------------------------0--0----|
----------------------------------------------------|


-----------------------------0----------------------|
-----------------------------------3--3-------------|
-----------------------------------------2----------|
--------0-----3-----0-------------------------------|
--3-----------------------------------------0--0----|
----------------------------------------------------|


-----------------------------0----------------------|
-----------------------------------3--3-------------|
-----------------------------------------2----------|
--------0-----3-----0-------------------------------|
--3-----------------------------------------0--0----|
----------------------------------------------------|


-----------------------------0----------------------|
-----------------------------------3--3-------------|
-----------------------------------------2----------|
--------0-----3-----0-------------------------------|
--3-----------------------------------------0--0----|
----------------------------------------------------|


----------------------------|
-----1-----3----------------|
-----2-----2----------------|
-----3-----0----------------|
--3--3----------------------|
----------------------------|




Rush - Closer to the heart.

--5--------7--------4--------5--------4-------------|
-----0--------0--------0--------0--------7--5-------|
--------6--------6--------6--------6----------------|
----------------------------------------------------|
----------------------------------------------------|
----------------------------------------------------|


--5--------7--------4--------5--------4-------------|
-----0--------0--------0--------0--------7--5-------|
--------6--------6--------6--------6----------------|
----------------------------------------------------|
----------------------------------------------------|
----------------------------------------------------|


--5--------7--------4--------5--------4-------------|
-----0--------0--------0--------0--------7--5-------|
--------6--------6--------6--------6----------------|
----------------------------------------------------|
----------------------------------------------------|
----------------------------------------------------|


--5--------7--------4--------5--------4-------------|
-----0--------0--------0--------0--------7--5-------|
--------6--------6--------6--------6----------------|
----------------------------------------------------|
----------------------------------------------------|
----------------------------------------------------|


-----------0----------------|-----------0----------------|
--------3--------3----------|--------3--------3----------|
-----4----------------------|-----2----------------------|
--5-----------------5s-4----|--4-----------------4s-3----|
----------------------------|----------------------------|
----------------------------|----------------------------|


-----------0----------------|
--------1--------1----------|
-----2--------------2-------|
--3-----------------3-------|
----------------------------|
----------------------------|


--0-----------------------------------------0-------|
--0--------3--------2--------2--------0--2----------|
--2--------2--------2-------------------------------|
--2--------2--------2--------------2----------------|
--0--------0--------0-------------------------------|
----------------------------------------------------|


--0-------------------------------------------------|
--0--------3--------2-------------------------------|
--2--------2--------2-------------------------------|
--2--------2--------2-------------------------------|
--0--------0--------0-------------------------------|
----------------------------------------------------|




The Manic Street Preachers - Motorcycle emptiness.

----------------------------------------------------|
----------------------------------------------------|
--4b+r--------------------------------2h-4--2h-4----|
----------------------------------------------------|
----------------------------------------------------|
----------------------------------------------------|


----------------------------------------------------|----------------|
----------------------------------------------------|----------------|
--4b+r--------------------------------2h-4--2h-4----|--4b+r-----4s---|
----------------------------------------------------|----------------|
----------------------------------------------------|----------------|
----------------------------------------------------|----------------|


----------------------------------------------------|
----------------------------------------------------|
--2s-4--4--4--4s-6--6--6--6s-8--8--8--8s-9--11------|
----------------------------------------------------|
----------------------------------------------------|
----------------------------------------------------|


----------------------------------------------------|
----------------------------------------------------|
--13b+r-------------------------------11h13-11h13---|
----------------------------------------------------|
----------------------------------------------------|
----------------------------------------------------|


----------------------------------------------------|
----------------------------------------------------|
--13b+r-------------------------------11h13-11h13---|
----------------------------------------------------|
----------------------------------------------------|
----------------------------------------------------|


----------------------------|
----------------------------|
--13b+r-------------13s-----|
----------------------------|
----------------------------|
----------------------------|


----------------------------------------------------|
----------------------------------------------------|
--2s-4--4--4--4s-6--6--6--6s-8--8--8--8s-9--9--9----|
----------------------------------------------------|
----------------------------------------------------|
----------------------------------------------------|




AC/DC - Back in black.

----------------------------------------------------|
--------------------3--3--3-------------------------|
--------------------2--2--2-----------------2--2----|
--2-----------------0--0--0-----------------2--2----|
--2-----------------------------------------0--0----|
--0-------------------------------------------------|


-----------------------------3--0-------------------|
-----------------------------------3--0-------------|
--2--------------------------------------2b+r--0----|
--2-------------------------------------------------|
--0-------------------------------------------------|
----------------------------------------------------|


----------------------------------------------------|
--------------------3--3--3-------------------------|
--------------------2--2--2-----------------2--2----|
--2-----------------0--0--0-----------------2--2----|
--2-----------------------------------------0--0----|
--0-------------------------------------------------|


----------------------------------------------------|
----------------------------------------------------|
--2-------------------------------------------------|
--2-------------------------------------------------|
--0-------------------------------------------------|
--------------7--3-----7--5-----7--6-----7--7s------|


----------------------------------------------------|
--------------------3--3--3-------------------------|
--------------------2--2--2-----------------2--2----|
--2-----------------0--0--0-----------------2--2----|
--2-----------------------------------------0--0----|
--0-------------------------------------------------|


-----------------------------3--0-------------------|
-----------------------------------3--0-------------|
--2--------------------------------------2b+r--0----|
--2-------------------------------------------------|
--0-------------------------------------------------|
----------------------------------------------------|


----------------------------------------------------|
--------------------3--3--3-------------------------|
--------------------2--2--2-----------------2--2----|
--2-----------------0--0--0-----------------2--2----|
--2-----------------------------------------0--0----|
--0-------------------------------------------------|


----------------------------------------------------|-------||
----------------------------------------------------|-------||
--2-------------------------------------------------|-------||
--2-------------------------------------------------|--2----||
--0-------------------------------------------------|--2----||
--------------7--3-----7--5-----7--6-----7--7s------|--0----||

Добавлено: 03.11.2015
Другие материалы по этой песне:
  • Аккорды и текст

Страница создана 03.11.2015
http://primanota.ru/misc/101-guitar-riffs-made-easier-for-beginners-part-3-chords.htm
Привет, Гость.
Предлагаем пройти революционный курс по гитаре.
Подарок от PrimaNota.Ru, забирай!