PrimaNota.ru - самый крупный в мире бесплатный архив песенных текстов, аккордов, табулатур и нот


Misc - 101 Guitar Riffs Made Easier For Beginners Part 2 - таба, видео

Регистрация Запомнить меня
Войти через:  Facebook Google Twitter Vk Yandex Mail.ru

Misc - 101 Guitar Riffs Made Easier For Beginners Part 2 - таба, видео

Печатать
Просмотров: 106
Уроки эстрадного вокала в Санкт-Петербурге
Part 2, Riffs 21 - 40

Some of these songs are different from the originals due to changes in tunings or complexity.

Tabber: BadBikaDamo

Guitar Pro version also available

Legend
x - dead note
h - hammer on
p - pull off
b - bend
r - release bend
s - slide
L - tied note
t - trill

INXS - Need you tonight.
                                
E |--8-----8-----8-------------|
B |--8-----8-----8-------------|
G |--9-----9-----9-------------|
D |--10----10----10------------|
A |--10----10----10------------|
E |--8-----8-----8-------------|

                                                     
--11-11-11-11-10-10-10-8----------------------------|
--11-11-11-11-10-10-10-8----------------------------|
----------------------------------------------------|
----------------------------------------------------|
----------------------------------------------------|
----------------------------------------------------|

                             
--8-----8-----8-------------|
--8-----8-----8-------------|
--9-----9-----9-------------|
--10----10----10------------|
--10----10----10------------|
--8-----8-----8-------------|

                                                     
--11-11-11-11-10-10-10-8----------------------------|
--11-11-11-11-10-10-10-8----------------------------|
----------------------------------------------------|
----------------------------------------------------|
----------------------------------------------------|
----------------------------------------------------|


Lenny Kravitz - Are yougonna go my way?
                                                     
----------------------------------------------------|
----------------------------------------------------|
----------------------------------------------------|
--7b----7p-5----------------------------------------|
--------------7-----------5-----7-------------------|
--------------------0-------------------------------|

                                                     
----------------------------------------------------|
----------------------------------------------------|
----------------------------------------------------|
--7b----7p-5--------------------------5-------------|
--------------7-----------5-----7-------------------|
--------------------0-------------------------------|

                                                     
----------------------------------------------------|
----------------------------------------------------|
----------------------------------------------------|
--7b----7p-5----------------------------------------|
--------------7-----------5-----7-------------------|
--------------------0-------------------------------|

                                                     
----------------------------------------------------|
----------------------------------------------------|
----------------------------------------------------|
--7b----7p-5--------------------------5-------------|
--------------7-----------5-----7-------------------|
--------------------0-------------------------------|


Blur - Song 2.
                                                     
----------------------------------------------------|
----------------------------------------------------|
----------------------------------------------------|
--------11----11----x--x--9-----------9-----x--x----|
--------9-----9-----x--x--7-----------7-----x--x----|
----------------------------------------------------|

                             
----------------------------|
----------------------------|
--9--9--11-13----13-13-13---|
--7--7--9--11----11-11-11---|
----------------------------|
----------------------------|

                                                     
----------------------------------------------------|
----------------------------------------------------|
----------------------------------------------------|
--x-----11----11----x--x--9-----9-----9-----x--x----|
--x-----9-----9-----x--x--7-----7-----7-----x--x----|
----------------------------------------------------|

                                                          
----------------------------|----------------------------|
----------------------------|----------------------------|
--9--9--11-13----13-13-13---|----------------------------|
--7--7--9--11----11-11-11---|--4--4--4--4--2--2--2--2----|
----------------------------|--4--4--4--4--2--2--2--2----|
----------------------------|--2--2--2--2--0--0--0--0----|

                                                          
----------------------------|----------------------------|
----------------------------|----------------------------|
----------------------------|----------------------------|
--7--7--9--11----11-11-11---|--4--4--4--4--2--2--2--2----|
--7--7--9--11----11-11-11---|--4--4--4--4--2--2--2--2----|
--5--5--7--9-----9--9--9----|--2--2--2--2--0--0--0--0----|

                                                          
----------------------------|----------------------------|
----------------------------|----------------------------|
----------------------------|----------------------------|
--7--7--9--11----11-11-11---|--4--4--4--4--2--2--2--2----|
--7--7--9--11----11-11-11---|--4--4--4--4--2--2--2--2----|
--5--5--7--9-----9--9--9----|--2--2--2--2--0--0--0--0----|

                                                          
----------------------------|----------------------------|
----------------------------|----------------------------|
----------------------------|----------------------------|
--7--7--9--11----11-11-11---|--4--4--4--4--2--2--2--2----|
--7--7--9--11----11-11-11---|--4--4--4--4--2--2--2--2----|
--5--5--7--9-----9--9--9----|--2--2--2--2--0--0--0--0----|


                             
----------------------------|
----------------------------|
----------------------------|
--7--7--9--11----11-11-11---|
--7--7--9--11----11-11-11---|
--5--5--7--9-----9--9--9----|

Dick Dale  - Misirlou.
          =       =     
-------|-------|-------|
-------|-------|-------|
-------|-------|-------|
-------|-------|-------|
-------|-------|-------|
--12s--|--0----|--0----|

  =           =     =          =        =  =     =          =       =     
----------------------------|----------------------------|-------|-------|
----------------------------|----------------------------|-------|-------|
----------------------------|----------------------------|-------|-------|
----------------------------|----------------------------|-------|-------|
----------------------------|----------------------------|-------|-------|
--0-----0--1--4-----5-------|--7--------8--11----8--0----|--7----|--7s---|

  =           =     =          =        =  =     =          =       =     
----------------------------|----------------------------|-------|-------|
----------------------------|----------------------------|-------|-------|
----------------------------|----------------------------|-------|-------|
----------------------------|----------------------------|-------|-------|
----------------------------|----------------------------|-------|-------|
--0-----0--1--4-----5-------|--7--------8--11----8--0----|--7----|--7----|

              =     =     =           =              
----------------------------------------------------|
----------------------------------------------------|
----------------------------------------------------|
----------------------------------------------------|
----------------------------------------------------|
--8-----7h-8--7-----8-----7-----------5-------------|

              =     =     =           =                =     
----------------------------------------------------|-------|
----------------------------------------------------|-------|
----------------------------------------------------|-------|
----------------------------------------------------|-------|
----------------------------------------------------|-------|
--7-----5h-7--5-----7-----5-----------4-----0-------|--4----|

  =                          
----------------------------|
----------------------------|
----------------------------|
----------------------------|
----------------------------|
--4-----------------4--0----|

  =                                   =              
----------------------------------------------------|
----------------------------------------------------|
----------------------------------------------------|
----------------------------------------------------|
----------------------------------------------------|
--7-----------5-----7-----5h-7--5-----4-------------|

  =     =  =                   =       =
----------------------------|-------|-------|
----------------------------|-------|-------|
----------------------------|-------|-------|
----------------------------|-------|-------|
----------------------------|-------|-------|
--5-----4--5--4-----1--4----|--0----|--0----|


Franz Ferdinand - Take me out.

----------------------------------------------------|
----------------------------------------------------|
--9-----------9-----------9-----x--9-----x--9-------|
--x-----------x-----------x-----x--x-----x--x-------|
--7-----------7-----------7-----x--7-----x--7-------|
----------------------------------------------------|


----------------------------------------------------|
----------------------------------------------------|
--9-----------9-----------9-----x--9-----x--9-------|
--x-----------x-----------x-----x--x-----x--x-------|
--7-----------7-----------7-----x--7-----x--7-------|
----------------------------------------------------|


----------------------------------------------------|
----------------------------------------------------|
--9-----------9-----------9-----x--9-----x--9-------|
--x-----------x-----------x-----x--x-----x--x-------|
--7-----------7-----------7-----x--7-----x--7-------|
----------------------------------------------------|


----------------------------------------------------|
----------------------------------------------------|
--9-----------9-----------9-----x--9-----x--9-------|
--x-----------x-----------x-----x--x-----x--x-------|
--7-----------7-----------7-----x--7-----x--7-------|
----------------------------------------------------|


----------------------------------------------------|
--------8-------------------------------------------|
--------------9--------7h-9h-7--------7-----9-------|
--------------------------------9-------------------|
----------------------------------------------------|
----------------------------------------------------|


----------------------------------------------------|
--------8-------------------------------------------|
--------------9--------7h-9h-7--------7-----9-------|
--------------------------------9-------------------|
----------------------------------------------------|
----------------------------------------------------|


----------------------------------------------------|
--------8-------------------------------------------|
--------------9--------7h-9h-7--------7-----9-------|
--------------------------------9-------------------|
----------------------------------------------------|
----------------------------------------------------|


----------------------------------------------------|
--7--7--7--7--7--7--7--7--7--7--7--7----------------|
--------------------------------------7-----7-------|
----------------------------------------------------|
----------------------------------------------------|
----------------------------------------------------|


Duanne Eddy - Peter Gunn.

----------------------------|----------------------------|
----------------------------|----------------------------|
----------------------------|----------------------------|
----------------------------|----------------------------|
----------------------------|----------------------------|
--0h-1--1--1--0h-1--1--1----|--0h-1--1--1--0h-1--1--1----|


----------------------------|----------------------------|-------|
----------------------------|----------------------------|-------|
----------------------------|----------------------------|--7----|
----------------------------|----------------------------|-------|
--------------------1-------|--------------------1-------|-------|
--1--1--3--1--4--1-----4----|--1--1--3--1--4--1-----4----|-------|


----------------|--------------------------|
----------------|--------------------------|
--7s------------|--6h-7-----------6h-7-----|
----------------|--------------------------|
----------------|--------------------------|
----------------|--------------------------|


--7-------------------------|
-----6s---------------------|
----------------------------|
----------------------------|
----------------------------|
----------------------------|


--------------------------------------------------------|
---------------------------7--9--9h-10--9h-10--9h-10----|
------------------------9-------------------------------|
--------------------------------------------------------|
--------------------------------------------------------|
--------------------------------------------------------|


--------------------------------|
--9h-10---9---7-----------------|
-------------------9------------|
-----------------------7---9----|
--------------------------------|
--------------------------------|


----------------------------|
----------------------------|
--5s------------------------|
--------7--5--7-------------|
----------------------------|
----------------------------|


Muddy Waters - Mannish boy.


-----------------------------------------------------------------------|
-----------------------------------------------------------------------|
---6--------------------------7-----------------------5s-6-------------|
---7--------------7-----------------------7----------------------------|
-----------------------------------------------------------------------|
-----------------------------------------------------------------------|



-----------------------------------------------------------------------|
-----------------------------------------------------------------------|
---6--------------------------7-----------------------5s-6-------------|
---7--------------7-----------------------7----------------------------|
-----------------------------------------------------------------------|
-----------------------------------------------------------------------|


--------------------------------------------------------------------------------
--------------------------8b----------------------------------------------------
--6-----------------------------------------------------------------------------
--7-----------------------------------------------------------------------------
--------------------------------------------------------------------------------
--------------------------------------------------------------------------------


-----------------------------------------------------------------------|
--------8b-------------------------------------------------------------|
---6--------------------------7-----------------------5s-6-------------|
---7--------------7-----------------------7----------------------------|
-----------------------------------------------------------------------|
-----------------------------------------------------------------------|



-----------------------------------------------------------------------|
-----------------------------------------------------------------------|
---6----6t--------------------7-----------------------5s-6-------------|
---7--------------7-----------------------7----------------------------|
-----------------------------------------------------------------------|
-----------------------------------------------------------------------|



-------10b+r--8b------------------------------------------------------------|
------------------10--------------------------------------------------------|
---6-------------------------------7-----------------------5s-6-------------|
---7-------------------7-----------------------7----------------------------|
----------------------------------------------------------------------------|
----------------------------------------------------------------------------|



---------------------------------------------------------------------------|-------------|
---------------------------------------------------------------------------|-------------|
---6---7b+r--5b-------------------7-----------------------5s-6-------------|--6t----7s---|
---7-------------7----7-----------------------7----------------------------|-------------|
---------------------------------------------------------------------------|-------------|
---------------------------------------------------------------------------|-------------|


Aerosmith - Walk this way.

----------------------------------------------------|
----------------------------------------------------|
----------------------------------------------------|
-----------2--------------2-------------------------|
--0--1--2--------0--1--2----------------------------|
--------------------------------0-------------------|


----------------------------------------------------|
----------------------------------------------------|
----------------------------------------------------|
-----------2--------------2-----------2-------------|
--0--1--2--------0--1--2----------------------------|
--------------------------------3-------------------|


----------------------------------------------------|
----------------------------------------------------|
----------------------------------------------------|
-----------2--------------2-------------------------|
--0--1--2--------0--1--2----------------------------|
--------------------------------0-------------------|


----------------------------------------------------|
----------------------------------------------------|
--------------------------------2-----2-----2-------|
-----------2--------------2-----2-----2-----2-------|
--0--1--2--------0--1--2--------0-----0-----0-------|
----------------------------------------------------|


ZZ Top - Sharp dressed man.

----------------------------|
----------------------------|
--------10----8-------------|
-----10-10----8--10---------|
-----10----------10---------|
-----------------------8----|


----------------------------------------------------|
----------------------------------------------------|
--10----8-----------------------------------0-------|
--10----8-----------10------------------------------|
--------------------------------------1s-3----------|
--------------------------------3-------------------|


----------------------------|
----------------------------|
--------10----8-------------|
--------10----8--10---------|
-----------------10---------|
-----------------------8----|


----------------------------------------------------|
----------------------------------------------------|
--10----8-----------------------------------0-------|
--10----8-----------10------------------------------|
--------------------------------------1s-3----------|
--------------------------------3-------------------|



Blondie - Atomic.

----------------------------------------------------|
----------------------------------------------------|
----------------------------------------------------|
-----------------------------------0--5--4----------|
----------------------------------------------------|
----------------------------------------------------|


----------------------------------------------------|
----------------------------------------------------|
----------------------------------------------------|
--2--------------------------------0--5--4----------|
----------------------------------------------------|
----------------------------------------------------|


----------------------------------------------------|
----------------------------------------------------|
----------------------------------------------------|
--2--------------------------------0--5--4----------|
----------------------------------------------------|
----------------------------------------------------|


----------------------------------------------------|----------------|
----------------------------------------------------|----------------|
----------------------------------------------------|--------4-------|
--2--------------------------------0--5--4----------|--7-------------|
----------------------------------------------------|----------------|
----------------------------------------------------|----------------|



Michael Jackson - Beat it.

----------|------------------------------------------|
----------|------------------------------------------|
----------|----------------0-------------------------|
----------|-----------------------2--------2s-4------|
----------|---------2--------------------------------|
-----0----|--3---------------------------------------|


----------------------------|
----------------------------|
----------------------------|
-----2--0-----0-------------|
----------------------------|
-----------------------0----|



----------|------------------------------------------|
----------|------------------------------------------|
----------|----------------0-------------------------|
----------|-----------------------2--------2s-4------|
----------|---------2--------------------------------|
-----0----|--3---------------------------------------|


----------------------------|
----------------------------|
----------------------------|
-----2--0-------------------|
----------------------------|
-----------------------0----|

----------|---------------------------------------------|
----------|---------------------------------------------|
----------|-------------------0-------------------------|
----------|--------------------------2--------2s-4------|
----------|-----------2---------------------------------|
-----0----|--0--3---------------------------------------|


----------------------------|
----------------------------|
----------------------------|
-----2--0-----0-------------|
----------------------------|
-----------------------0----|


----------|---------------------------------------------|
----------|---------------------------------------------|
----------|-------------------0-------------------------|
----------|--------------------------2--------2s-4------|
----------|-----------2---------------------------------|
-----0----|--0--3---------------------------------------|


----------------------------|
----------------------------|
---------------------x--x---|
-----2---------------x--x---|
----------------------------|
----------------------------|


----------------------------------------------------|
----------------------------------------------------|
--x-----x--x--12----x--x--12----------------x--x----|
--x-----x--x--12----x--x--12----14----------x--x----|
--------------------------------14------------------|
----------------------------------------------------|


----------------------------------------------------|
----------------------------------------------------|
--11----x--x--11------------------------------------|
--12----x--x--12----12------------------------------|
--------------------12------------------------------|
----------------------------------------------------|


----------------------------------------------------|
----------------------------------------------------|
--------x--x--12----x--x--12----------------x--x----|
--------x--x--12----x--x--12----14----------x--x----|
--------------------------------14------------------|
----------------------------------------------------|


----------------------------------------------------|
----------------------------------------------------|
--11----x--x--11------------------------------------|
--12----x--x--12----12------------------------------|
--------------------12------------------------------|
----------------------------------------------------|



Rage Against The Machine - Killing in the name of.

-------|-------|-------|
-------|-------|-------|
-------|-------|-------|
--2----|--2----|--2----|
--2----|--2----|--2----|
--0----|--0----|--0----|


-------|----------------------------------------------------|
-------|----------------------------------------------------|
-------|----------------------------------------------------|
--2----|----------------------------------------------------|
--2----|----------------------------------------------------|
--0----|--0--------0--------0-----13-------13-------13------|


----------------------------------------------------|
----------------------------------------------------|
----------------------------------------------------|
----------------------------------------------------|
----------------------------------------------------|
--0--------0--------0-----13-------13-------13------|


----------------------------------------------------|
----------------------------------------------------|
----------------------------------------------------|
----------------------------------------------------|
----------------------------------------------------|
--0--------0--------0-----13-------13-------13------|


----------------------------------------------------|
----------------------------------------------------|
----------------------------------------------------|
----------------------------------------------------|
----------------------------------------------------|
--0--------0--------0-----13-------13-------13------|


----------------------------------------------------|
----------------------------------------------------|
--------------------------------------13----14------|
--------------------------13----14------------------|
----------------------------------------------------|
--0--------0--------0-------------------------------|


----------------------------------------------------|
----------------------------------------------------|
--------------------------------------13----14------|
--------------------------13----14------------------|
----------------------------------------------------|
--0--------0--------0-------------------------------|


----------------------------------------------------|
----------------------------------------------------|
--------------------------------------13----14------|
--------------------------13----14------------------|
----------------------------------------------------|
--0--------0--------0-------------------------------|


----------------------------------------------------|
----------------------------------------------------|
--------------------------------------13h14p13------|
--------------------------13----14------------------|
----------------------------------------------------|
--0--------0--------0-------------------------------|


----------------------------------------------------|
----------------------------------------------------|
--------------------------------------13----14------|
--------------------------13----14------------------|
----------------------------------------------------|
--0--------0--------0-------------------------------|


----------------------------------------------------|
----------------------------------------------------|
--------------------------------------13----14------|
--------------------------13----14------------------|
----------------------------------------------------|
--0--------0--------0-------------------------------|


----------------------------------------------------|
----------------------------------------------------|
--------------------------------------13----14------|
--------------------------13----14------------------|
----------------------------------------------------|
--0--------0--------0-------------------------------|


----------------------------------------------------|
----------------------------------------------------|
--------------------------------------13h14p13------|
--------------------------13----14------------------|
----------------------------------------------------|
--0--------0--------0-------------------------------|


----------------------------------------------------|
----------------------------------------------------|
----------------------------------------------------|
--------------------------10-------10-------10------|
--2--------2--------2-----8--------8--------8-------|
--0--------0--------0-------------------------------|


----------------------------------------------------|
----------------------------------------------------|
----------------------------------------------------|
--------------------------10-------10-------10------|
--2--------2--------2-----8--------8--------8-------|
--0--------0--------0-------------------------------|


----------------------------------------------------|
----------------------------------------------------|
----------------------------------------------------|
--------------------------10-------10-------10------|
--2--------2--------2-----8--------8--------8-------|
--0--------0--------0-------------------------------|


----------------------------------------------------|
----------------------------------------------------|
--------------------------10------------------------|
--------------------------10------------------------|
--2--------2--------2-----8-------------------------|
--0--------0--------0-------------------------------|


----------------------------------------------------|
----------------------------------------------------|
----------------------------------------------------|
--------------------5--6----------------------------|
--------5--7--------------7-------------------------|
--0-----------------------------0-----2--3--2-------|


----------------------------------------------------|
----------------------------------------------------|
----------------------------------------------------|
--------------------5--6----------------------------|
--------5--7--------------7-------------------------|
--0-----------------------------0-----2--3--2-------|


----------------------------------------------------|
----------------------------------------------------|
----------------------------------------------------|
--------------------5--6----------------------------|
--------5--7--------------7-------------------------|
--0-----------------------------0-----2--3--2-------|


----------------------------------------------------|
----------------------------------------------------|
----------------------------------------------------|
--------------------5--6----------------------------|
--------5--7--------------7-------------------------|
--0-----------------------------0-----2--3--2-------|


----------------------------------------------------|
----------------------------------------------------|
----------------------------------------------------|
--------------------11----------------------10------|
--------5--7--------------------5--7----------------|
--0-----------------------0-------------------------|


----------------------------------------------------|
----------------------------------------------------|
----------------------------------------------------|
--------------------9-------------------------------|
--------5--7----------------------------------------|
--0-----------------------2--3--2--3--2--3--2-------|


----------------------------------------------------|
----------------------------------------------------|
----------------------------------------------------|
--------------------11----------------------10------|
--------5--7--------------------5--7----------------|
--0-----------------------0-------------------------|


----------------------------------------------------|
----------------------------------------------------|
--------------------------7--7--7--7--7--7--7--7----|
--------------------9-----7--7--7--7--7--7--7--7----|
--------5--7--------------5--5--5--5--5--5--5--5----|
--0-------------------------------------------------|


----------------------------------------------------|
----------------------------------------------------|
--9--9--------9-------------------------------------|
--x--x--------x-------------------------------------|
--7--7--------7-------------------------------------|
----------------------------------------------------|


----------------------------------------------------|
----------------------------------------------------|
--9--9--------9-------------------------------------|
--x--x--------x-------------------------------------|
--7--7--------7-------------------------------------|
----------------------------------------------------|


----------------------------------------------------|
----------------------------------------------------|
--9--9--------9-------------------------------------|
--x--x--------x-------------------------------------|
--7--7--------7-------------------------------------|
----------------------------------------------------|


----------------------------------------------------|
----------------------------------------------------|
--9--9--------9-------------------------------------|
--x--x--------x-------------------------------------|
--7--7--------7-------------------------------------|
----------------------------------------------------|


--------------------------------------------------------------------------------
--------------------------------------------------------------------------------
--9-----9-----x-----------9-----------x--------x--x--------x--x--------x--x-----
--x-----x-----x-----------x-----------x--------x--x--------x--x--------x--x-----
--7-----7-----x-----------7-----------x--------x--x--------x--x--------x--x-----
--------------------------------------------------------------------------------


--------------------|
--------------------|
---x--x--------x----|
---x--x--------x----|
---x--x--------x----|
--------------------|


--------------------------------------------------------------------------------
--------------------------------------------------------------------------------
--9-----9-----x-----------9-----------x--------x--x--------x--x--------x--x-----
--x-----x-----x-----------x-----------x--------x--x--------x--x--------x--x-----
--7-----7-----x-----------7-----------x--------x--x--------x--x--------x--x-----
--------------------------------------------------------------------------------


--------------------|
--------------------|
---x--x--------x----|
---x--x--------x----|
---x--x--------x----|
--------------------|


--------------------------------------------------------------------------------
--------------------------------------------------------------------------------
--9-----9-----x-----------9-----------x--------x--x--------x--x--------x--x-----
--x-----x-----x-----------x-----------x--------x--x--------x--x--------x--x-----
--7-----7-----x-----------7-----------x--------x--x--------x--x--------x--x-----
--------------------------------------------------------------------------------


--------------------|
--------------------|
---x--x--------x----|
---x--x--------x----|
---x--x--------x----|
--------------------|


--------------------------------------------------------------------------------
--------------------------------------------------------------------------------
--9-----9-----x-----------9-----------x--------x--x--------x--x--------x--x-----
--x-----x-----x-----------x-----------x--------x--x--------x--x--------x--x-----
--7-----7-----x-----------7-----------x--------x--x--------x--x--------x--x-----
--------------------------------------------------------------------------------


--------------------|----------------------------------------------------|
--------------------|----------------------------------------------------|
---x--x--------x----|--9--9--x-----9-----x--9-----x----------------------|
---x--x--------x----|--------x-----------x--------x----------------------|
---x--x--------x----|--7--7--x-----7-----x--7-----x--------------5-------|
--------------------|--------------------------------3-----5-------------|


----------------------------------------------------|
----------------------------------------------------|
--9--9--x-----9-----x--9-----x----------------------|
--------x-----------x--------x----------------------|
--7--7--x-----7-----x--7-----x--------------5-------|
--------------------------------3-----5-------------|


----------------------------------------------------|
----------------------------------------------------|
--9--9--x-----9-----x--9-----x----------------------|
--------x-----------x--------x----------------------|
--7--7--x-----7-----x--7-----x--------------5-------|
--------------------------------3-----5-------------|


----------------------------------------------------|
----------------------------------------------------|
--9--9--x-----9-----x--9-----x----------------------|
--------x-----------x--------x----------------------|
--7--7--x-----7-----x--7-----x--------------5-------|
--------------------------------3-----5-------------|


----------------------------------------------------------------------------|
----------------------------------------------------------------------------|
--21-21-21-21-21-21-21-21-21-21-21-21-21-21-21-21-21-21-21-21-21-21-21-21---|
----------------------------------------------------------------------------|
--19-19-19-19-19-19-19-19-19-19-19-19-19-19-19-19-19-19-19-19-19-19-19-19---|
----------------------------------------------------------------------------|


----------------------------------------------------|---------|
----------------------------------------------------|---------|
----------------------------------------------------|---------|
--2--------2--------2-----15-------15-------15L-----|--(15)s--|
--2--------2--------2-----15-------15-------15L-----|--(15)s--|
--0--------0--------0-----13-------13-------13L-----|--(13)s--|



The Clash - Should I stay or should I go now?

-----2--2--2--3--3--3--3----|--2-----x-----x-----x-------|
-----3--3--3--3--3--3--3----|--3-----x-----x-----x-------|
-----2--2--2--0--0--0--0----|--2-----x-----x-----x-------|
-----0--0--0--0--0--0--0----|--0-----x-----x-----x-------|
--------------2--2--2--2----|----------------------------|
--------------3--3--3--3----|----------------------------|


-----2--2--2--3--3--3--3----|
-----3--3--3--3--3--3--3----|
-----2--2--2--0--0--0--0----|
-----0--0--0--0--0--0--0----|
--------------2--2--2--2----|
--------------3--3--3--3----|


--2-----------------------5h-8----------------------|
--3-------------------------------------------------|
--2-------------------------------------------------|
--0-------------------------------------------------|
----------------------------------------------------|
----------------------------------------------------|


-----2--2--2--3--3--3--3----|--2-------------------------|
-----3--3--3--3--3--3--3----|--3-------------------------|
-----2--2--2--0--0--0--0----|--2-------------------------|
-----0--0--0--0--0--0--0----|--0-------------------------|
--------------2--2--2--2----|----------------------------|
--------------3--3--3--3----|----------------------------|


-----2--2--2--3--3--3--3----|--2-------------------------|
-----3--3--3--3--3--3--3----|--3-------------------------|
-----2--2--2--0--0--0--0----|--2-------------------------|
-----0--0--0--0--0--0--0----|--0-------------------------|
--------------2--2--2--2----|----------------------------|
--------------3--3--3--3----|----------------------------|


-----2--2--2--3--3--3--3----|--2-------------------------|
-----3--3--3--3--3--3--3----|--3-------------------------|
-----2--2--2--0--0--0--0----|--2-------------------------|
-----0--0--0--0--0--0--0----|--0-------------------------|
--------------2--2--2--2----|----------------------------|
--------------3--3--3--3----|----------------------------|


-----2--2--2--3--3--3--3----|--2-------------------------|
-----3--3--3--3--3--3--3----|--3-------------------------|
-----2--2--2--0--0--0--0----|--2-------------------------|
-----0--0--0--0--0--0--0----|--0-------------------------|
--------------2--2--2--2----|----------------------------|
--------------3--3--3--3----|----------------------------|


-----3--3--3--1--1--1--1----|--3-------------------------|
-----3--3--3--1--1--1--1----|--3-------------------------|
-----4--4--4--2--2--2--2----|--4-------------------------|
-----5--5--5--3--3--3--3----|--5-------------------------|
-----5--5--5--3--3--3--3----|--5-------------------------|
-----3--3--3--1--1--1--1----|--3-------------------------|


-----2--2--2--3--3--3--3----|--2-------------------------|
-----3--3--3--3--3--3--3----|--3-------------------------|
-----2--2--2--0--0--0--0----|--2-------------------------|
-----0--0--0--0--0--0--0----|--0-------------------------|
--------------2--2--2--2----|----------------------------|
--------------3--3--3--3----|----------------------------|


-----0--0--0--0--0--0--0----|--0-------------------------|
-----2--2--2--2--2--2--2----|--2-------------------------|
-----2--2--2--2--2--2--2----|--2-------------------------|
-----2--2--2--2--2--2--2----|--2-------------------------|
-----0--0--0--0--0--0--0----|--0-------------------------|
----------------------------|----------------------------|


-----2--2--2--3--3--3--3----|--2-------------------------|
-----3--3--3--3--3--3--3----|--3-------------------------|
-----2--2--2--0--0--0--0----|--2-------------------------|
-----0--0--0--0--0--0--0----|--0-------------------------|
--------------2--2--2--2----|----------------------------|
--------------3--3--3--3----|----------------------------|



The Eagles - Life in the fast lane.

----------------------------------------------------|
----------------------------------------------------|
----------------------------------------------------|
--------7-----5b------------------------------------|
--5h-7-----7--------7--5----------------------------|
--------------------------7s-5--3b----0-------------|


----------------------------------------------------|
----------------------------------------------------|
----------------------------------------------------|
--------7-----5b------------------------------------|
--5h-7-----7--------7--5----------------------------|
--------------------------7s-5--3b------------------|


----------------------------------------------------|
----------------------------------------------------|
----------------------------------------------------|
--------7-----5b------------------------------------|
--5h-7-----7--------7--5--------------------5h-7----|
--------------------------7s-5--3b----0-------------|


----------------------------------------------------|
----------------------------------------------------|
----------------------------------------------------|
--7-----5b------------------------------------------|
-----7--------7--5----------------------------------|
--------------------7s-5--3L-------(3)b-------------|


----------------------------------------------------|
----------------------------------------------------|
----------------------------------------------------|
--------7-----5b------------------------------------|
--5h-7-----7--------7--5----------------------------|
--------------------------7s-5--3b----0-------------|


----------------------------------------------------|
----------------------------------------------------|
----------------------------------------------------|
--------7-----5b------------------------------------|
--5h-7-----7--------7--5----------------------------|
--------------------------7s-5--3b------------------|


----------------------------------------------------|
----------------------------------------------------|
----------------------------------------------------|
--------7-----5b------------------------------------|
--5h-7-----7--------7--5--------------------5h-7----|
--------------------------7s-5--3b----0-------------|


----------------------------------------------------|
----------------------------------------------------|
----------------------------------------------------|
--7-----5b------------------------------------------|
-----7--------7--5----------------------------------|
--------------------7s-5--3b----5-----6-----7-------|


----------------------------------------------------|
----------------------------------------------------|
----------------------------------------------------|
--------5p-2p-0-----2-------------------------------|
--------------------------5s-7--------7-------------|
--0-------------------------------------------------|


----------------------------------------------------|
----------------------------------------------------|
----------------------------------------------------|
--------5p-2--0-----2-------------------------------|
--------------------------5s-2----------------------|
--0-----------------------------3b------------------|


----------------------------------------------------|
----------------------------------------------------|
----------------------------------------------------|
--------5p-2-----0--2-------------------------------|
--------------------------5s-7--------7-------------|
----------------------------------------------------|


----------------------------------------------------|
----------------------------------------------------|
----------------------------------------------------|
--------5p-2--0-----2-------------------------------|
--------------------------5s-2----------------------|
--0-----------------------------3b------------------|



The Stone Roses - Fools Gold.

----------------------------------------------------|
----------------------------------------------------|
--------2-------------------------------------------|
--------------------5p-4h-5p-4h-5-------------------|
--0-----------------------------------------3p-2h---|
----------------------------------------------------|


----------------------------------------------------|
----------------------------------------------------|
----------------------------------------------------|
----------------------------------------------------|
--3p-2h-3-----3-----2--2--------------------0-------|
-----------------------------3--3-----4-------------|


----------------------------------------------------|
----------------------------------------------------|
--------2-------------------------------------------|
--------------------5p-4h-5p-4h-5-------------------|
--0-----------------------------------------3p-2h---|
----------------------------------------------------|


----------------------------------------------------|
----------------------------------------------------|
----------------------------------------------------|
----------------------------------------------------|
--3p-2h-3-----3-----2--2--------------------0-------|
-----------------------------3--3-----4-------------|


----------------------------------------------------|
----------------------------------------------------|
--------2-------------------------------------------|
--------------------5p-4h-5p-4h-5-------------------|
--0-----------------------------------------3p-2h---|
----------------------------------------------------|


----------------------------------------------------|
----------------------------------------------------|
----------------------------------------------------|
----------------------------------------------------|
--3p-2h-3-----3-----2--2--------------------0-------|
-----------------------------3--3-----4-------------|


----------------------------------------------------|
----------------------------------------------------|
--------2-------------------------------------------|
--------------------5p-4h-5p-4h-5-------------------|
--0-----------------------------------------3p-2h---|
----------------------------------------------------|


---------------------------------------------------|
---------------------------------------------------|
---------------------------------------------------|
---------------------------------------------------|
--3p-2--3-----3-----2-2--------------------0-------|
-----------------------------3-3-----4-------------|



Van Halen - Ain't talkin' 'bout love.

--------------0--1----------|--3-------------------------|
--------1-----------1-------|-----3----------------------|
-----------2-----------2----|----------------------------|
-----2----------------------|----------------------------|
--0-------------------------|-----------3--------2--3----|
----------------------------|--------3-------------------|


--------------0--1----------|--3-------------------------|
--------1-----------1-------|-----3----------------------|
-----------2-----------2----|----------------------------|
-----2----------------------|----------------------------|
--0-------------------------|-----------3--------2--3----|
----------------------------|--------3-------------------|


--------------0--1----------|--3-------------------------|
--------1-----------1-------|-----3----------------------|
-----------2-----------2----|----------------------------|
-----2----------------------|----------------------------|
--0-------------------------|-----------3L-3-----2--3----|
----------------------------|--------3-------------------|


--------------0--1----------|--3-------------------------|
--------1-----------1-------|-----3----------------------|
-----------2-----------2----|----------------------------|
-----2----------------------|----------------------------|
--0-------------------------|-----------3--------2--3----|
----------------------------|--------3-------------------|


The Blue Oyster Cult - Don't fear the reaper.

----------------------------|----------------------------|
----------------------------|----------------------------|
--------2h-0-----------0----|-----------0-----------0----|
-----2--------------0-------|--------0-----------0-------|
--0--------------2----------|-----3-----------2----------|
--------------3-------------|--1-----------3-------------|


----------------------------|----------------------------|
----------------------------|----------------------------|
--------2h-0-----------0----|-----------0-----------0----|
-----2--------------0-------|--------0-----------0-------|
--0--------------2----------|-----3-----------2----------|
--------------3-------------|--1-----------3-------------|


----------------------------|----------------------------|
----------------------------|----------------------------|
--------2h-0-----------0----|-----------0-----------0----|
-----2--------------0-------|--------0-----------0-------|
--0--------------2----------|-----3-----------2----------|
--------------3-------------|--1-----------3-------------|


----------------------------|----------------------------|
----------------------------|----------------------------|
--------2h-0-----------0----|-----------0-----------0----|
-----2--------------0-------|--------0-----------0-------|
--0--------------2----------|-----3-----------2----------|
--------------3-------------|--1-----------3-------------|


----------------------------|----------------------------|
----------------------------|----------------------------|
--------2--2----------------|--------2--2----------------|
--------------------2--2----|--------------------2--2----|
--0--0--------0--0----------|--0--0--------0--0----------|
----------------------------|----------------------------|


----------------------------|----------------------------|
----------------------------|----------------------------|
--------2--2----------------|--------2--2----------------|
--------------------2--2----|--------------------2--2----|
--0--0--------0--0----------|--0--0--------0--0----------|
----------------------------|----------------------------|



The Cult - She sells sanctuary.

----------------------------------------------------|
----------------------------------------------------|
-----14-------12-------11-------7-----5h-7p-5h-7----|
--0--------0--------0--------0----------------------|
----------------------------------------------------|
----------------------------------------------------|


----------------------------------------------------|
----------------------------------------------------|
--5--------7--------2-------------------------------|
--------0--------0----------------------------------|
----------------------------------------------------|
----------------------------------------------------|


------------------------------------------------------|
------------------------------------------------------|
-----14-------12-------16-------14-------12p-11h-12h--|
--0--------0--------0--------0--------0---------------|
------------------------------------------------------|
------------------------------------------------------|


----------------------------------------------------|
-----------------------15---------------------------|
--14-12-------14------------------------------------|
-----------0--------0-------------------------------|
----------------------------------------------------|
----------------------------------------------------|


----------------------------------------------------|
----------------------------------------------------|
--14----14-12----12-11----12s11-7-----7-----7--7----|
--0-----0--0-----0--0-----0--0--0-----0-----0--0----|
----------------------------------------------------|
----------------------------------------------------|


----------------------------------------------------|
----------------------------------------------------|
--5-----5--7-----7--2-----12s11-7-----7-------------|
--0-----0--0-----0--0-----0--0--0-----0-------------|
----------------------------------------------------|
----------------------------------------------------|



Red Hot Chili Peppers - Under the bridge,

----------------------------------------------------|
-----------------------3----------------------------|
--------------2--------------2----------------------|
--0-----4-----------4-------------------------------|
--------------------------------------4--2--0-------|
-----------------------------------------------4----|


----------------------------------------------------|
----------------------------------------------------|
-----------------------3----------------------------|
--------------4--------------4--------4--2--0-------|
--------4-----------4--------------------------2----|
--2-------------------------------------------------|


----------------------------------------------------|
----------------------------------------------------|
-----------------------7h-9p-7----------------------|
--------4-----7-----------------7-------------------|
--4s-5-----5--------5---------------------5s-7--7---|
----------------------------------------------------|


----------------------------------------------------|
----------------------------------------------------|
-----------------------3----------------------------|
--------------4--------------4--------4--2--0-------|
--------4-----------4--------------------------2----|
--2-------------------------------------------------|


----------------------------------------------------|
----------------------------------------------------|
-----------------------7----------------------------|
--------4-----7-----4--------7----------------------|
--4s-5-----5--------------------------4--2--0-------|
-----------------------------------------------4----|


----------------------------------------------------|
----------------------------------------------------|
-----------------------3----------------------------|
--------------4--------------4--------4--2--0-------|
--------4-----------4--------------------------2----|
--2-------------------------------------------------|


----------------------------------------------------|
----------------------------------------------------|
-----------------------7h-9p-7----------------------|
--------4-----7-----------------7-------------------|
--4s-5-----5--------5---------------------5s-7--7---|
----------------------------------------------------|


----------------------------------------------------||
----------------------------------------------------||
-----------------------3--------------3-------------||
--------------4--------------4-----------4----------||
--------4-----------4-----------4-----------4s-7----||
--2-------------------------------------------------||

Добавлено: 03.11.2015
Другие материалы по этой песне:
  • Аккорды и текст

Страница создана 03.11.2015
http://primanota.ru/misc/101-guitar-riffs-made-easier-for-beginners-part-2-chords.htm
Привет, Гость.
Предлагаем пройти революционный курс по гитаре.
Подарок от PrimaNota.Ru, забирай!