PrimaNota.ru - самый крупный в мире бесплатный архив песенных текстов, аккордов, табулатур и нот


Misc - 101 Guitar Riffs Made Easier For Beginners Part 1 - таба, видео

Регистрация Запомнить меня
Войти через:  Facebook Google Twitter Vk Yandex Mail.ru

Misc - 101 Guitar Riffs Made Easier For Beginners Part 1 - таба, видео

Печатать
Просмотров: 102
Уроки эстрадного вокала в Санкт-Петербурге
Part 1, Riffs 1 - 20

Some of these songs are different from the originals due to changes in tunings or complexity.

Tabber: BadBikaDamo

Guitar Pro version also available

Legend
x - dead note
h - hammer on
p - pull off
b - bend
r - release bend
s - slide
L - tied note


Beck - Loser.

e |----------------------------------------------------|
B |----------------------------------------------------|
G |----------------------------------------------------|
D |--------------2--------2--------------7s------------|
A |--------------2--------2--------------7s------------|
E |--0-----3s----------3s----------------5s------------|


----------------------------------------------------|
----------------------------------------------------|
----------------------------------------------------|
--------------2--------2--------------7s------------|
--------------2--------2--------------7s------------|
--0-----3s----------3s----------------5s------------|


Jet - Are you gonna be my girl?

----------------------------|----------------------------|
----------------------------|----------------------------|
--------5-----7b-------7b+r-|--7b-5----------------------|
--7-------------------------|--------7-----7-----5-------|
----------------------------|----------------------------|
----------------------------|----------------------------|


----------------------------|----------------------------|
----------------------------|----------------------------|
----------------------------|--------------------5b------|
--7-----7-----7--------7----|-----7--------7-------------|
--0-----0-----0--------0----|-----0--------0-------------|
----------------------------|----------------------------|


----------------------------|----------------------------|
----------------------------|----------------------------|
----------------------------|----------------------------|
--7-----7-----7--------7----|-----7--------7-----5b------|
--0-----0-----0--------0----|-----0----------------------|
----------------------------|----------------------------|


----------------------------|----------------------------|
----------------------------|----------------------------|
----------------------------|--------------7-----5-------|
--7-----7-----7--------7----|-----7----------------------|
--0-----0-----0--------0----|-----0----------------------|
----------------------------|----------------------------|


----------------------------|----------------------------|
----------------------------|----------------------------|
--------5-----7b-------7b+r-|--7b-5----------------------|
--7-------------------------|--------7-----7--x--5--7----|
----------------------------|----------------------------|
----------------------------|----------------------------|


The Dandy Warholls' - Bohemian like you.

----------------------------|----------------------------|
-----------------------4----|-----4--5-----5--4-----7----|
----------------------------|----------------------------|
-----------------------4----|-----4--4-----4--4-----7----|
-----------------------2----|-----2--2-----2--2-----5----|
----------------------------|----------------------------|


----------------------------|----------------------------|
-----7--8-----8--7-----2----|-----2--3-----3--2-----9----|
----------------------------|----------------------------|
-----7--7-----7--7-----2----|-----2--2-----2--2-----9----|
-----5--5-----5--5-----0----|-----0--0-----0--0-----7----|
----------------------------|----------------------------|


----------------------------|----------------------------|
-----10-9--9--9--10-9--9----|--4--4--5-----5--4-----7----|
----------------------------|----------------------------|
-----9--9--9--9--9--9--9----|--4--4--4-----4--4-----7----|
-----7--7--7--7--7--7--7----|--2--2--2-----2--2-----5----|
----------------------------|----------------------------|


----------------------------|----------------------------|
-----7--8-----8--7-----2----|-----2--3-----3--2-----9----|
----------------------------|----------------------------|
-----7--7-----7--7-----2----|-----2--2-----2--2-----9----|
-----5--5-----5--5-----0----|-----0--0-----0--0-----7----|
----------------------------|----------------------------|


----------------------------|
-----10-9--9--9--10-9--4----|
-----------------------4----|
-----9--9--9--9--9--9--4----|
-----7--7--7--7--7--7--2----|
----------------------------|


John Cougar - Jack and Diane

-------|----------------|----------------------------------------------------|
--10---|--9-----10-9----|--7-------------------------------------------------|
--9----|--9-----9--9----|--7-------------------------------------------------|
--11---|--9-----11-9----|--7-----------------0--0----------------------------|
--0----|--0-----0--0----|--0-------------------------------------------------|
-------|----------------|----------------------------------------------------|


----------------------------------------------------|-------|----------------|
----------------------------------------------------|--10---|--9-----10-9----|
----------------------------------------------------|--9----|--9-----9--9----|
--------0--0--0--0--0--0----------------------------|--11---|--9-----11-9----|
----------------------------------------------------|--0----|--0-----0--0----|
----------------------------------------------------|-------|----------------|


----------------------------------------------------|
--7-------------------------------------------------|
--7-------------------------------------------------|
--7-----------------0--0----------------------------|
--0-------------------------------------------------|
----------------------------------------------------|


----------------------------------------------------|
----------------------------------------------------|
----------------------------------------------------|
--------0--0--0--0--0--0----------------------------|
----------------------------------------------------|
----------------------------------------------------|


--5-----7-----x--x--4-----------4-----4-------------|
--5-----5-----x--x--5-----------5-----5-------------|
--6-----6-----x--x--4-----------4-----4-------------|
----------------------------------------------------|
----------------------------------------------------|
----------------------------------------------------|


--2-----x--2-----x--4-----------5-----4-----x--x----|
--3-----x--3-----x--5-----------5-----5-----x--x----|
--2-----x--2-----x--4-----------4-----4-----x--x----|
----------------------------------------------------|
----------------------------------------------------|
----------------------------------------------------|


--5-----7-----x--x--4-----------4-----4-----x--x----|
--5-----5-----x--x--5-----------5-----5-----x--x----|
--6-----6-----x--x--4-----------4-----4-----x--x----|
----------------------------------------------------|
----------------------------------------------------|
----------------------------------------------------|


--2-----x--4-----x--5-----------5-----5-----x--x----|
--3-----x--5-----x--5-----------5-----5-----x--x----|
--2-----x--4-----x--6-----------6-----6-----x--x----|
----------------------------------------------------|
----------------------------------------------------|
----------------------------------------------------|


--5-----7-----x--x--4-----------4-----4-------------|
--5-----5-----x--x--5-----------5-----5-------------|
--6-----6-----x--x--4-----------4-----4-------------|
----------------------------------------------------|
----------------------------------------------------|
----------------------------------------------------|


--2-----x--2-----x--4-----------5-----4-----x--x----|
--3-----x--3-----x--5-----------5-----5-----x--x----|
--2-----x--2-----x--4-----------4-----4-----x--x----|
----------------------------------------------------|
----------------------------------------------------|
----------------------------------------------------|


--5-----7-----x--x--4-----------4-----4-----x--x----|
--5-----5-----x--x--5-----------5-----5-----x--x----|
--6-----6-----x--x--4-----------4-----4-----x--x----|
----------------------------------------------------|
----------------------------------------------------|
----------------------------------------------------|


--2-----x--4-----x--5-----------5-----5-------------|
--3-----x--5-----x--5-----------5-----5-------------|
--2-----x--4-----x--6-----------6-----6-------------|
----------------------------------------------------|
----------------------------------------------------|
----------------------------------------------------|


Eddie Cochran - C'mon ev'rybody.

----------------------------|----------------------------|
----------------------------|----------------------------|
----------------------------|----------------------------|
----------------------------|----------------------------|
----------------------------|----------------------------|
--0h-1--1--1--0h-1--1--1----|--0h-1--1--1-----1--1--1----|


----------------------------|----------------------------|
----------------------------|----------------------------|
----------------------------|----------------------------|
----------------------------|----------------------------|
----------------------------|----------------------------|
--0h-1--1--1--0h-1--1--1----|--0h-1--1--1-----1--1--1----|


----------------------------|----------------------------|----------------|
----------------------------|----------------------------|----------------|
----------------------------|--3-----3--3-----3--3--3----|--5--5--3--3----|
--3-----3--3-----3--3--3----|--3-----3--3-----3--3--3----|--5--5--3--3----|
--3-----3--3-----3--3--3----|--1-----1--1-----1--1--1----|--3--3--1--1----|
--1-----1--1-----1--1--1----|----------------------------|----------------|


----------------|----------------------------|----------------------------|
----------------|----------------------------|----------------------------|
----------------|----------------------------|--3-----3--3-----3--3--3----|
--3-------------|--3-----3--3-----3--3--3----|--3-----3--3-----3--3--3----|
--3-------------|--3-----3--3-----3--3--3----|--1-----1--1-----1--1--1----|
--1-------------|--1-----1--1-----1--1--1----|----------------------------|


----------------|----------|
----------------|----------|
--5--5--3--3----|----------|
--5--5--3--3----|--3-------|
--3--3--1--1----|--3-------|
----------------|--1-------|


Survivor - Eye of the tiger.

----------------------------------------------------|
----------------------------------------------------|
----------------------------------------------------|
----------------------------------------------------|
----------------------------------------------------|
--x--x--x--x--x--x--x--x--x--x--x--x--x--x--x--x----|


----------------------------------------------------|
----------------------------------------------------|
----------------------------------------------------|
--10----------------------10-------8--------10------|
--10----------------------10-------8--------10------|
--8-----x--x--x--x--x--x--8-----x--6-----x--8-------|


----------------------------------------------------|
----------------------------------------------------|
----------------------------------------------------|
--------------------------10-------8--------10------|
--------------------------10-------8--------10------|
--x--x--x--x--x--x--x--x--8-----x--6-----x--8-------|


----------------------------------------------------|-------|
----------------------------------------------------|-------|
----------------------------------------------------|-------|
--------------------------10-------5--------6L------|--(6)--|
--------------------------10-------5--------6L------|--(6)--|
--x--x--x--x--x--x--x--x--8-----x--3-----x--4L------|--(4)--|


----------------------------------------------------|
----------------------------------------------------|
----------------------------------------------------|
--10----------------------10-------8--------10------|
--10----------------------10-------8--------10------|
--8-----x--x--x--x--x--x--8-----x--6-----x--8-------|


----------------------------------------------------|
----------------------------------------------------|
----------------------------------------------------|
--------------------------10-------8--------10------|
--------------------------10-------8--------10------|
--x--x--x--x--x--x--x--x--8-----x--6-----x--8-------|


----------------------------------------------------|-------|
----------------------------------------------------|-------|
----------------------------------------------------|-------|
--------------------------10-------5--------6L------|--(6)--|
--------------------------10-------5--------6L------|--(6)--|
--x--x--x--x--x--x--x--x--8-----x--3-----x--4L------|--(4)--|


The Byrds - Mr Tabourine Man.

--2-------------------------|--0-------------------------|
--3-------------------------|--2-------------------------|
--2-----2--2--4--2--0-------|--2-------------------------|
--0--------------------4----|--2--2--0--2-----0--2-------|
----------------------------|----------------------------|
----------------------------|----------------------------|


--2-------------------------|--0-------------------------|
--3-------------------------|--2-------------------------|
--2-----2--2--4--2--0-------|--2-------------------------|
--0--------------------4----|--2--2--0--2-----0--2-------|
----------------------------|----------------------------|
----------------------------|----------------------------|


--2-------------------------|--0-------------------------|
--3-------------------------|--2-------------------------|
--2-----2--2--4--2--0-------|--2-------------------------|
--0--------------------4----|--2--2--0--2-----0--2-------|
----------------------------|----------------------------|
----------------------------|----------------------------|


Rainbow - Long live rock 'n' roll.

----------------|
----------------|
----------------|
----------------|
--------3--4----|
--------1--2----|

----------------------------|----------------------------|
----------------------------|----------------------------|
--------5-----3-------------|----------------------------|
--------5-----3--5----------|--3-----3-----3--5----------|
--5--------------5----------|--3-----3-----3--5----------|
--3--------------------3----|----------------------------|


----------------------------|----------------------------|
----------------------------|----------------------------|
--------5-----3-------------|----------------------------|
--------5-----3--5----------|--3-----3--5~---------------|
-----------------5----------|--3-----3--5~---------------|
--3--------------------3----|----------------------------|


----------------------------|----------------------------|----------------|
----------------------------|----------------------------|----------------|
--------5-----3-------------|----------------------------|----------------|
--------5-----3--5----------|--3-----3-----3--5----------|--5--3----------|
-----------------5----------|--3-----3-----3--5----------|--------5--3----|
--3--------------------3----|----------------------------|----------------|


----------------|
----------------|
----------------|
----------------|
--1-------------|
-----3--1--2----|


Joan Jet - I love rock 'n' roll.

----------------------------------------------------|
----------------------------------------------------|
----------------------------------------------------|
--2-----2-----------------2-----2-------------------|
--2-----2-----------------2-----2-------------------|
--0-----0-----------------0-----0--------3b---------|


----------------------------------------------------|
----------------------------------------------------|
--2-----2-----------------4-----4-------------------|
--2-----2-----------------4-----4-------------------|
--0-----0-----------------2-----2-------------------|
-----------------------------------------3b---------|


----------------------------------------------------|----------------------|
----------------------------------------------------|----------------------|
----------------------------------------------------|--2--2--------4--2----|
--2-----2-----------------2-----2-------------------|--2--2--------4--2----|
--2-----2-----------------2-----2-------------------|--0--0--------2--0----|
--0-----0-----------------0-----0--------3b---------|----------------------|


----------------------------|
----------------------------|
----------------------------|
--2--2----------------------|
--2--2----------------------|
--0--0----------------------|


----------------------------------------------------|
--------------------------15b---12------------------|
--------------------------------------14-12s--------|
--2-----2-------------------------------------------|
--2-----2-------------------------------------------|
--0-----0-------------------------------------------|


John Lee Hooker - Boom boom.

----------------------------|----------------|----------------------------|
-----------3----------------|----------------|----------------------------|
-----2s-4-----4s-2----------|----------------|--------0--3p-2p-0----------|
--------------------2--0----|--2-------------|-----2--------------2--0----|
----------------------------|----------------|----------------------------|
----------------------------|----------------|----------------------------|


----------------|----------------------------|----------------|
----------------|--------3p-0----------------|----------------|
----------------|-----0--------2p-0----------|----------------|
--2-------------|--------------------2--0----|--2-------------|
----------------|----------------------------|----------------|
----------------|----------------------------|----------------|


----------------------------|----------------|----------------------------|
----------------------------|----------------|----------------------------|
--------0--3p-2p-0----------|----------------|----------------------------|
-----2--------------2--0----|--2-------------|--------2-----5-----7--5----|
----------------------------|----------------|--------2-----5-----7--5----|
----------------------------|----------------|--------0-----3-----5--3----|


----------------|----------------------------|----------------|
----------------|----------------------------|----------------|
----------------|----------------------------|----------------|
--2.------------|--------2-----5-----7--5----|--2.------------|
--2-------------|--------2-----5-----7--5----|--2-------------|
--0-------------|--------0-----3-----5--3----|--0-------------|


----------------------------|----------------|----------------------------|
----------------------------|----------------|----------------------------|
--------2-----5-----7--5----|--2-------------|----------------------------|
--------2-----5-----7--5----|--2.------------|--------2-----5-----7--5----|
--------0-----3-----5--3----|--0-------------|--------2-----5-----7--5----|
----------------------------|----------------|--------0-----3-----5--3----|


----------------|----------------------------|----------------|
----------------|----------------------------|----------------|
----------------|--------4-----7-----9--7----|--4-------------|
--2.------------|--------4-----7-----9--7----|--4.------------|
--2-------------|--------2-----5-----7--5----|--2-------------|
--0-------------|----------------------------|----------------|


----------------------------|----------------|
----------------------------|----------------|
----------------------------|----------------|
--------2-----5-----7--5----|--2.------------|
--------2-----5-----7--5----|--2-------------|
--------0-----3-----5--3----|--0-------------|


Steppenwolf - Born to be wild.

----------------------------|
----------------------------|
--9--------9--9--------9----|
--9--------9--9--------9----|
--7--------7--7--------7----|
--0--------0--0--------0----|


----------------------------|----------------------------|
----------------------------|----------------------------|
-----9----------------------|--9--------9--9--------9----|
-----9-----9--11----12------|--9--------9--9--------9----|
-----7-----7--7-----7-------|--7--------7--7--------7----|
-----0-----0--0-----0-------|--0--------0--0--------0----|


----------------------------|----------------------------|
----------------------------|----------------------------|
-----9----------------------|--9--------9--9--------9----|
-----9-----9--11----12------|--9--------9--9--------9----|
-----7-----7--7-----7-------|--7--------7--7--------7----|
-----0-----0--0-----0-------|--0--------0--0--------0----|


----------------------------|----------------------------|
----------------------------|----------------------------|
-----9----------------------|--9--------9--9--------9----|
-----9-----9--11----12------|--9--------9--9--------9----|
-----7-----7--7-----7-------|--7--------7--7--------7----|
-----0-----0--0-----0-------|--0--------0--0--------0----|


----------------------------|
----------------------------|
-----9----------------------|
-----9-----9--11----12------|
-----7-----7--7-----7-------|
-----0-----0--0-----0-------|


Tom Petty - Runnin' down a dream.

----------------------------|
----------------------------|
----------------------------|
----------------------------|
----------------------------|
-----0--7--0--6--0--5--0----|

----------------------------|----------------------------|
----------------------------|----------------------------|
----------------------------|----------------------------|
----------------------------|----------------------------|
----------------------------|----------------------------|
--3--0----------------------|-----0--7--0--6--0--5--0----|


----------------------------|----------------------------|
----------------------------|----------------------------|
----------------------------|----------------------------|
----------------------------|----------------------------|
----------------------------|----------------------------|
--3--0----------------------|-----0--7--0--6--0--5--0----|


----------------------------|----------------------------|
----------------------------|----------------------------|
----------------------------|----------------------------|
----------------------------|----------------------------|
----------------------------|----------------------------|
--3--0----------------------|-----0--7--0--6--0--5--0----|


----------------------------|
----------------------------|
----------------------------|
----------------------------|
----------------------------|
--3--0----------------------|


The Breeders - Cannonball

----------------------------|
--4s-2s-4s-2----------------|
--------------3s-1s-3s-1----|
----------------------------|
----------------------------|
----------------------------|


----------------------------|----------------------------|
--4s-2s-4s-2----------------|--4s-2s-4s-2----------------|
--------------3s-1s-3s-1----|--------------3s-1s-3s-1----|
----------------------------|----------------------------|
----------------------------|----------------------------|
----------------------------|----------------------------|


----------------------------|----------------------------|
----------------------------|----------------------------|
--------------8--8--8-------|--------------8--8--8-------|
--8--8--8--6--8--8--8--6----|--8--8--8--6--8--8--8--6----|
--8--8--8--6--6--6--6--6----|--8--8--8--6--6--6--6--6----|
--6--6--6--6-----------6----|--6--6--6--6-----------6----|


----------------------------|----------------------------|
----------------------------|----------------------------|
--------------8--8--8-------|--------------8--8--8-------|
--8--8--8--6--8--8--8--6----|--8--8--8--6--8--8--8--6----|
--8--8--8--6--6--6--6--6----|--8--8--8--6--6--6--6--6----|
--6--6--6--6-----------6----|--6--6--6--6-----------6----|


----------------------------|----------------------------|
----------------------------|----------------------------|
--------------8--8--8-------|--------------8--8--8-------|
--8--8--8--6--8--8--8--6----|--8--8--8--6--8--8--8--6----|
--8--8--8--6--6--6--6--6----|--8--8--8--6--6--6--6--6----|
--6--6--6--6-----------6----|--6--6--6--6-----------6----|


----------------------------|
----------------------------|
----------------------------|
--8-------------------------|
--8-------------------------|
--6-------------------------|


Edwyn Collins - A girl like you.

----------------------------|
----------------------------|
----------------------------|
----------------------------|
--3-----1-------------------|
--------------4-----3-------|


----------------------------------------------------|
----------------------------------------------------|
----------------------------------------------------|
----------------------------------------------------|
--------------1-------------------------------------|
--1-----------------3-------------------------------|


----------------------------|----------------------------|
----------------------------|----------------------------|
----------------------------|--------3-------------------|
--10-10-8--8--6--6--5--5----|--3-----3--5----------------|
--10-10-8--8--6--6--5--5----|--3-----1--5----------------|
--8--8--6--6--4--4--3--3----|--1--------3----------------|


----------------------------|
----------------------------|
----------------------------|
----------------------------|
--3-----1-------------------|
--------------4-----3-------|


----------------------------------------------------|
----------------------------------------------------|
----------------------------------------------------|
----------------------------------------------------|
--------------1-------------------------------------|
--1-----------------3-------------------------------|


----------------------------|----------------------------|
----------------------------|----------------------------|
----------------------------|--------3-----------8--10---|
--10-10-8--8--6--6--5--5----|--3-----3--5-----10---------|
--10-10-8--8--6--6--5--5----|--3-----1--5----------------|
--8--8--6--6--4--4--3--3----|--1--------3----------------|


--------------------------------------------------------------------|
--8-----------------------------------------------------------------|
-----------------10----8--------------------------------------------|
--------------------------------------10--------------10------------|
--------------------------------------------------------------------|
--------------------------------------------------------------------|


----------------------------|----------------------------|
--------11-8----------------|--8-------------------------|
--8-----------------8--10---|--------8-------------------|
-----------------10---------|-----------10----------10---|
----------------------------|----------------------------|
----------------------------|----------------------------|


----------------------------|----------------------------|
----------------------------|--8-------------------------|
--7-----------------8--10---|--------8-------------------|
--------8--10----10---------|-----------10----------10---|
----------------------------|----------------------------|
----------------------------|----------------------------|


----------------------------|----------------------------|
--------11-8----------------|--8-------------------------|
--8-----------------8--10---|--------8-------------------|
-----------------10---------|-----------10----------10---|
----------------------------|----------------------------|
----------------------------|----------------------------|


----------------------------|
----------------------------|
--7-------------------------|
--------8--10---------------|
----------------------------|
----------------------------|


The Knack - My Sharona.

----------------------------------------------------|
----------------------------------------------------|
--------------------------5--------5--5--3----------|
--------------------------5--------5--5--3----------|
--------------------------3--------3--3--1----------|
-----------------------------------------------1----|


----------------------------------------------------|
----------------------------------------------------|
----------------------------------------------------|
--------5--5--------5-----------5-----------5-------|
----------------------------------------------------|
--3--3--------3-----------3-----------3--3-----1----|


----------------------------------------------------|
----------------------------------------------------|
--------------------------5--------5--5--3----------|
--------5--5--------5-----5--------5--5--3----------|
--------------------------3--------3--3--1----------|
--3--3--------3--------------------------------1----|


----------------------------------------------------|
----------------------------------------------------|
----------------------------------------------------|
--------5--5--------5-----------5-----------5-------|
----------------------------------------------------|
--3--3--------3-----------3-----------3--3-----1----|


----------------------------------------------------|
----------------------------------------------------|
--------------------------5--------5--5--3----------|
--------5--5--------5-----5--------5--5--3----------|
--------------------------3--------3--3--1----------|
--3--3--------3-------------------------------------|


Link Wray - Rumble

----------------------------------------------------|--0----|----------------|
--------------------------3-----------3-------------|--0----|--------3--3----|
--------------------------2-----------2-------------|--1----|--------2--2----|
--------------------------0-----------0-------------|--2----|--------0--0----|
--------------------------0-----------0-------------|--2----|--------0--0----|
----------------------------------------------------|--0----|----------------|


--0----|----------------|-------|----------------|--0----|----------------|
--0----|--------3--3----|--2----|--------3--3----|--0----|--------3--3----|
--1----|--------2--2----|--2----|--------2--2----|--1----|--------2--2----|
--2----|--------0--0----|--2----|--------0--0----|--2----|--------0--0----|
--2----|--------0--0----|--0----|--------0--0----|--2----|--------0--0----|
--0----|----------------|-------|----------------|--0----|----------------|


-----2----------|--3--0----------------------------------|----------------|--0----|
-----0----------|--------3--0----------------------------|--------3--3----|--0----|
-----2----------|--------------2--0----------------------|--------2--2----|--1----|
-----1----------|--------------------2--0----------------|--------0--0----|--2----|
--2-------------|--------------------------2--0----------|--2-----0--0----|--2----|
----------------|--------------------------------3b------|--0-------------|--0----|


Roy Orbison - Pretty woman.

----------------------------|----------------------------|-------|
----------------------------|----------------------------|-------|
----------------------------|----------------------------|-------|
----------------------------|----------------------------|-------|
-----------2--5-------------|-----------------------2----|--5----|
--0--0--4-------------------|--------------0--0--4-------|-------|


----------------------------|----------------------------|
----------------------------|----------------------------|
----------------------------|----------------------------|
-----------------4--2-------|-----------------4--2-------|
-----------2--5--------5----|-----------2--5--------5----|
--0--0--4-------------------|--0--0--4-------------------|


----------------------------|----------------------------|
----------------------------|----------------------------|
----------------------------|----------------------------|
-----------------4--2-------|-----------------4--2-------|
-----------2--5--------5----|-----------2--5--------5----|
--0--0--4-------------------|--0--0--4-------------------|


The Cure - Boys don't cry.

--------------------0-------|--------------------0-------|
--2-----2--2-----3----------|--2-----2--2-----3----------|
----------------------------|----------------------------|
----------------------------|----------------------------|
----------------------------|----------------------------|
----------------------------|----------------------------|


--0-----0--0-----2--4-------|--5--------2--0-------|
----------------------------|-----------------3----|
----------------------------|----------------------|
----------------------------|----------------------|
----------------------------|----------------------|
----------------------------|----------------------|


--------------------0-------|--------------------0-------|
--2-----2--2-----3----------|--2-----2--2-----3----------|
----------------------------|----------------------------|
----------------------------|----------------------------|
----------------------------|----------------------------|
----------------------------|----------------------------|


--0-----0--0-----2--4-------|--5--------2--0-------|-------|
----------------------------|-----------------3----|--2----|
----------------------------|----------------------|-------|
----------------------------|----------------------|-------|
----------------------------|----------------------|-------|
----------------------------|----------------------|-------|


The La's -0 There she goes.

----------------------------|--3-----5-----2-----3-------|
-----------------------3----|-----3-----3-----3-----3----|
----------------------------|----------------------------|
----------------------------|----------------------------|
----------------------------|----------------------------|
----------------------------|----------------------------|


--0-----0-----0-------------|--3-----5-----2-----3-------|
-----3-----3-----3-----3----|-----3-----3-----3-----3----|
--------------------0-------|----------------------------|
----------------------------|----------------------------|
----------------------------|----------------------------|
----------------------------|----------------------------|


--0-----0-----0-------------|--3-----5-----2-----3-------|
-----3-----3-----3-----3----|-----3-----3-----3-----3----|
--------------------0-------|----------------------------|
----------------------------|----------------------------|
----------------------------|----------------------------|
----------------------------|----------------------------|


--0-----0-----0-------------|--3-----5-----2-----3-------|
-----3-----3-----3-----3----|-----3-----3-----3-----3----|
--------------------0-------|----------------------------|
----------------------------|----------------------------|
----------------------------|----------------------------|
----------------------------|----------------------------|


--0-----0-----0-------------|--0-----0--------2--2--2----|
-----3-----3-----3-----3----|-----3-----3-----3--3--3----|
--------------------0-------|-----------------2--2--2----|
----------------------------|-----------------0--0--0----|
----------------------------|----------------------------|
----------------------------|----------------------------|


Johnny Kidd - Shakin' all over.

--------3h-0----------------------------------------|-------|
--------------3-----0-------------------------------|-------|
--------------------------2-----0-------------------|-------|
--------------------------------------2-----0-------|--2~---|
----------------------------------------------------|-------|
----------------------------------------------------|-------|

(palm mute for 4 bars)

--------12-12---------------|--------12-12---------------|
--------------15-15-12-12---|--------------15-15-12-12---|
----------------------------|----------------------------|
--14-14---------------------|--14-14---------------------|
----------------------------|----------------------------|
----------------------------|----------------------------|


--------12-12---------------|--------12-12---------------|
--------------15-15-12-12---|--------------15-15-12-12---|
----------------------------|----------------------------|
--14-14---------------------|--14-14---------------------|
----------------------------|----------------------------|
----------------------------|----------------------------|


--------3h-0----------------------------------------|-------||
--------------3-----0-------------------------------|-------||
--------------------------2-----0-------------------|-------||
--------------------------------------2-----0-------|--2~---||
----------------------------------------------------|-------||
----------------------------------------------------|-------||

Добавлено: 03.11.2015
Другие материалы по этой песне:
  • Аккорды и текст

Страница создана 03.11.2015
http://primanota.ru/misc/101-guitar-riffs-made-easier-for-beginners-part-1-chords.htm
Привет, Гость.
Предлагаем пройти революционный курс по гитаре.
Подарок от PrimaNota.Ru, забирай!