PrimaNota.ru - самый крупный в мире бесплатный архив песенных текстов, аккордов, табулатур и нот


Misc Your Songs - Scrrach - Lambast - таба, видео

Регистрация Запомнить меня
Войти через:  Facebook Google Twitter Vk Yandex Mail.ru

Misc Your Songs - Scrrach - Lambast - таба, видео

Печатать
Просмотров: 82
Уроки эстрадного вокала в Санкт-Петербурге
Song: Lambast
Artist: http://www.youtube.com/user/scrrach
Tuning: Standard
Tempo: 100

Place a capo on fret 2, but play the notes as if there wasn't a capo (except fret 
2 where you play open because there's the capo, but you can probably figure that out :)
To figure out exact timing listen to the song.


INTRO

e|-------------------------------------------------------------------|
B|-------------------------------------------------------------------|
G|---------------5---5-5-5-5-5-5---7---7-7-7-7-7-7---7-7-7-7-x-4/5\4-|
D|-5---5-5-5-5---5---5-5-5-5-5-5---7---7-7-7-7-7-7---7-7-7-7-x-------|
A|-5---5-5-5-5-2-3---3-3-3-3-3-3-2-5---5-5-5-5-5-5---5-5-5-5-5-------|  x3
E|-3---3-3-5-3-------------------------------------------------------|
PM     .....         .........         .........     .....   .

e|-------------------------------------------------------------------|
B|-------------------------------------------------------------------|
G|---------------5---5-5-5-5-5-5---7---7-7-7-7-7-7---7-7-7-7-7-7-7---|
D|-5---5-5-5-5---5---5-5-5-5-5-5---7---7-7-7-7-7-7---7-7-7-7-7-7-5---|
A|-5---5-5-5-5-2-3---3-3-3-3-3-3-2-5---5-5-5-5-5-5---5-5-5-5-5-5-5---|   x1
E|-3---3-3-5-3-------------------------------------------------------|
PM     .....         .........         .........     .....


VERSE 1

e|-------------------------------------------------------------------|
B|-------------------------------------------------------------------|
G|---------------7---7-7-7-7-7-7---5---5-5-5-5-x-5--5--5--5--5-5-5---|
D|-5---5-5-5-5---7---7-7-7-7-7-7---5---5-5-5-5-x-5--5--5--5--5-5-5---|
A|-5---5-5-5-5-2-5---5-5-5-5-5-5-2-3---3-3-3-3-3-2--2--2--2--2h3p2---|   x3
E|-3---3-3-3-3-------------------------------------------------------|
PM     .....         .........         ......  . 

e|-------------------------------------------------------------------|
B|-------------------------------------------------------------------|
G|---------------7---7-7-7-7-7-7---5---5-5-5-5-5-5x------------------|
D|-5---5-5-5-5---7---7-7-7-7-7-7---5---5-5-5-5-5-5x------------------|
A|-5---5-5-5-5-2-5---5-5-5-5-5-5-2-3---3-3-3-3-3-3x--2-3-5-3---2~----|   x1
E|-3---3-3-3-3-------------------------------------------------------|
PM     .....         .........         .........


VERSE 2

e|-------------------------------------------------------------------|
B|-------------------------------------------------------------------|
G|-------------------------------------------------------------------|
D|---------------7---7---7-7---5---5---5-5-5-5-5---5---5-5-5-5-------|
A|-5---5---5-5-2-5---5---5-5-2-3---3---3-3-3-2-2---2---2-2h3p2-------|   x3
E|-3---3---3-3-------------------------------------------------------|

e|-------------------------------------------------------------------|
B|-------------------------------------------------------------------|
G|-2---------------------------------2-------------------------------|
D|-4-------------------------------4---4------5----------------------|
A|-2---------------------------2-----------3----3--------------------|   x1
E|-------------------------------------------------------------------|


CHORUS

e|-------------------------------------------------------------------|
B|-------------------------------------------------------------------|
G|---------------5---5-5-5-5-5-5---7---7-7-7-7-7-7---7-7-7-7-x-4/5\4-|
D|-5---5-5-5-5---5---5-5-5-5-5-5---7---7-7-7-7-7-7---7-7-7-7-x-------|
A|-5---5-5-5-5-2-3---3-3-3-3-3-3-2-5---5-5-5-5-5-5---5-5-5-5-5-------|  x3
E|-3---3-3-5-3-------------------------------------------------------|
PM     .....         .........         .........     .....   .

e|-------------------------------------------------------------------|
B|-------------------------------------------------------------------|
G|---------------5---5-5-5-5-5-5---7---7-7-7-7-7-7---7-7-7-7-7-7-7---|
D|-5---5-5-5-5---5---5-5-5-5-5-5---7---7-7-7-7-7-7---7-7-7-7-7-7-5---|
A|-5---5-5-5-5-2-3---3-3-3-3-3-3-2-5---5-5-5-5-5-5---5-5-5-5-5-5-5---|   x1
E|-3---3-3-5-3-------------------------------------------------------|
PM     .....         .........         .........     .....


BRIDGE

e|--------------------------|
B|--------------------------|
G|-------------5-5---5-5----|
D|-5-5---5-5---5-5---5-5----|
A|-5-5---5-5-2-3-3---3-3----|  x4
E|-3-3---3-3-------------2--|
PM ...   .     ...   .


VERSE 3

e|--------------------------------------------------|
B|--------------------------------------------------|
G|--------------------------------------------------|
D|---------------7---7---7-7---5---5---2------------|
A|-5---5---5-5-2-5---5---5-5-2-3---3-----3-5---3-2~-|   x3
E|-3---3---3-3--------------------------------------|

e|--------------------------------------------------|
B|--------------------------------------------------|
G|-2---------------------------------2--------------|
D|-4-------------------------------4---4------5-----|
A|-2---------------------------2-----------3----3---|   x1
E|--------------------------------------------------|


CHORUS

e|-------------------------------------------------------------------|
B|-------------------------------------------------------------------|
G|---------------5---5-5-5-5-5-5---7---7-7-7-7-7-7---7-7-7-7-x-4/5\4-|
D|-5---5-5-5-5---5---5-5-5-5-5-5---7---7-7-7-7-7-7---7-7-7-7-x-------|
A|-5---5-5-5-5-2-3---3-3-3-3-3-3-2-5---5-5-5-5-5-5---5-5-5-5-5-------|  x3
E|-3---3-3-5-3-------------------------------------------------------|
PM     .....         .........         .........     .....   .

e|-------------------------------------------------------------------|
B|-------------------------------------------------------------------|
G|---------------5---5-5-5-5-5-5---7---7-7-7-7-7-7---7-7-7-7-7-7-7---|
D|-5---5-5-5-5---5---5-5-5-5-5-5---7---7-7-7-7-7-7---7-7-7-7-7-7-5---|
A|-5---5-5-5-5-2-3---3-3-3-3-3-3-2-5---5-5-5-5-5-5---5-5-5-5-5-5-5---|   x1
E|-3---3-3-5-3-------------------------------------------------------|
PM     .....         .........         .........     .....


************************************

| /   slide up
| \   slide down
| h   hammer-on
| p   pull-off
| x   Mute note

************************************
Добавлено: 25.07.2013
Другие материалы по этой песне:
  • Аккорды и текст

Страница создана 25.07.2013
http://primanota.ru/misc-your-songs/scrrach-lambast-chords.htm
Привет, Гость.
Предлагаем пройти революционный курс по гитаре.
Подарок от PrimaNota.Ru, забирай!