PrimaNota.ru - самый крупный в мире бесплатный архив песенных текстов, аккордов, табулатур и нот


Misc Your Songs - Gershom Tiquia - Im In Love With You - аккорды и текст

Регистрация Запомнить меня
Войти через:  Facebook Google Twitter Vk Yandex Mail.ru

Misc Your Songs - Gershom Tiquia - Im In Love With You - аккорды и текст

Печатать
Просмотров: 41
Gershom Tiquia - Im In Love With You
Misc Your Songs
Capo 2

[Intro]
F Am7 Bb6 C (x4)

   |F                     |Am7                    |Bb6                    |C
E|--1----------------------------------------------------------------------------------------------------|
A|--------------------------0-----------------------1-----------------------3----------------------------|
D|-----3-----3-----3-----3-----3-----3-----3-----3-----3-----3-----3-----3-----3-----3-----3-----3-------|
G|--------0-----0-----0-----------0-----0-----0-----------0-----0-----0-----------0-----0-----0----------|
B|-------------------------------------------------------------------------------------------------------|
e|-------------------------------------------------------------------------------------------------------|

   |F                     |Am7                    |Bb6                    |C
E|--1----------------------------------------------------------------------------------------------------|
A|--------------------------0-----------------------1-----------------------3----------------------------|
D|-----3-----3-----3-----3-----3-----3-----3-----3-----3-----3-----3-----3-----3-----3-----------3-------|
G|--------0-----0-----2-----------0-----0-----2-----------0-----0-----2-----------0---2h3--2--0----------|
B|-------------------------------------------------------------------------------------------------------|
e|-------------------------------------------------------------------------------------------------------|

   |F                     |Am7                    |Bb6                    |C
E|--1----------------------------------------------------------------------------------------------------|
A|--------------------------0-----------------------1-----------------------3----------------------------|
D|-----3-----3-----3-----3-----3-----3-----3-----3-----3-----3-----3-----3-----3-----3-----3-------3-----|
G|-------0-0----0---0h2----------0-0----0---0h2----------0-0----0---0h2-----------0----0-0--2h3-2-0------|
B|-------------------------------------------------------------------------------------------------------|
e|-------------------------------------------------------------------------------------------------------|   

   |F                     |Am7                    |Bb6                    |C
E|--1----------------------------------------------------------------------------------------------------|
A|--------------------------0-----------------------1-----------------------3----------------------------|
D|-----3-----3-----3-----3-----3-----3-----3-----3-----3-----3-----3-----3-----3-----3-------------------|
G|-------0-0----0---0h2----------0-0----0---0h2----------0-0----0---0h2-----------0-----0----------------|
B|-------------------------------------------------------------------------------------------------------|
e|-------------------------------------------------------------------------------------------------------|  


[Verse 1]
          F                               Am7
Oh when I look in your eyes, it's like the stars in the night
  Bb                          C
I can't get you out of my mind
               F                          Am7
Being with you feels so right, it's like a beautiful sunrise
  Bb                               C
I can't believe you're finally mine


[Pre-Chorus]
Gm                             C
Every single night I would dream of you
        Gm                            C
There's nothing more that I'd ever want than you
Gm                            C   Dm
Don't you know my love for you is true
Gm                          C
In my heart there is only you


[Chorus]
     F                Dm
Baby I really miss you
             Bb                 C
Oh could you be in my arms. and stay with me
             F                     C
Cuz girl whenever it rains you are my sunny day
Bb                        C
If I see your face I will never lose my way
  F        Am      Bb    C                  
Ooooh~~ Oooooh~~ Oooooh~~~ 
                  F   
I'm in love with you  
   Am      Bb   C
Oooooh~~ Oooooh~~~ 
                  F
I'm in love with you


[Interlude]
(Same as Intro)
F Am7 Bb6 C

[Bridge}
        Bb            F
Come to me, stay with me
          Bb          F
Here with me, be with me
                      Bb                F
It's where you should be, right next to me
                   Bb                  C      C#
Oh girl can't you see, I need you with me


**Change Key +1**

[Chorus]
     F#               D#m
Baby I really miss you
             B                  C#
Oh could you be in my arms. and stay with me
             F#                    C#
Cuz girl whenever it rains you are my sunny day
B                         C#
If I see your face I will never lose my way
  F#       Bbm      B    C#                  
Ooooh~~ Oooooh~~ Oooooh~~~ 
                  F#   
I'm in love with you  
   Bbm      B   C#
Oooooh~~ Ooooh~~~ 
                  F#
I'm in love with you


[Outro]
(Same as Intro)
F# Bb7 B6 C# (x2)
Добавлено: 11.03.2016
Другие материалы по этой песне:
  • Аккорды и текст

Страница создана 11.03.2016
http://primanota.ru/misc-your-songs/gershom-tiquia-im-in-love-with-you-chords.htm
Привет, Гость.
Предлагаем пройти революционный курс по гитаре.
Подарок от PrimaNota.Ru, забирай!