PrimaNota.ru - самый крупный в мире бесплатный архив песенных текстов, аккордов, табулатур и нот


Misc Your Songs - Dr Eye - таба, видео

Регистрация Запомнить меня
Войти через:  Facebook Google Twitter Vk Yandex Mail.ru

Misc Your Songs - Dr Eye - таба, видео

Печатать
Просмотров: 59
Новый альбом группы 'Черный Кузнец' по культовому сериалу 'Сверхъестественное'!
----------------------------------------------------------------- 
Dr Eye
-----------------------------------------------------------------
instrument: guitar
Tabbed by: vax0 
Tuning: standard

capo 3rd fret

[Intro]

e|---------------------------------------------------------------|
B|----------0---0---0--------------------------------------------|
G|-------2--0---0---0--------------------------------------------|
D|--0-2-4-4-4-2-2-0-0--------------------------------------------|   x2
A|---------------------------------------------------------------|
E|---------------------------------------------------------------|

e|-----------0---0-----------------------------------------------|
B|-----------0---0--0--------------------------------------------|
G|-------2-4-4-2-2--0--------------------------------------------|
D|--0-2-4---------4-4--------------------------------------------|   x2
A|---------------------------------------------------------------|
E|---------------------------------------------------------------|

e|---------------------------------------------------------------|
B|---------------------------------------------------------------|
G|---0-0-0-2-0-0-0-2-0-------------------------------------------|   x4 then repeat from start
D|--0-2-4-0-4-2-4-0-4--------------------------------------------|
A|---------------------------------------------------------------|
E|---------------------------------------------------------------|
Добавлено: 22.01.2018
Другие материалы по этой песне:
  • Аккорды и текст

Страница создана 22.01.2018
http://primanota.ru/misc-your-songs/dr-eye-chords.htm
Привет, Гость.
Предлагаем пройти революционный курс по гитаре.
Подарок от PrimaNota.Ru, забирай!