PrimaNota.ru - самый крупный в мире бесплатный архив песенных текстов, аккордов, табулатур и нот


Misc Your Songs - Brian Marshall - My Dear Betrayer - таба

Регистрация Запомнить меня
Войти через:  Facebook Google Twitter Vk Yandex Mail.ru

Misc Your Songs - Brian Marshall - My Dear Betrayer - таба

Печатать
Просмотров: 63
                               MY DEAR BETRAYER
                          As recorded by Brian Marshall

Words and Music by Brian Marshall
Arranged by Brian Marshall
Transcribed by Brian Marshall

This was one of the very first songs I wrote. I have the song in MIDI format if anyone
is interested in hearing it. Just send me a message at ethereaisin@aol.com and I'll send
it to you.

          A5                   G5                   F5               A5(type 2)
     7 7 7 9 10 x          5 5 5 7 8 x          3 3 3 5 6 x          7 7 7 x x x

      G5(type 2)           F5(type 2)
      5 5 5 x x x          3 3 3 x x x

Gtr I (D A D G B E) - 'Nylon Acoustic'
Gtr II (D A D G B E) - 'Steel String Acoustic'
Gtr III (D A D G B E) - 'Rhythm Distortion'
Gtr IV (D A D G B E) - 'Lead Distortion'
Gtr V (D A D G B E) - 'Lead 2(Solo)'

   Intro
    Moderate Q=120 Remains the same throughout the entire song.
    A5                 G5             F5
   15/4
    Gtrs I, II
      H     E  H     E  H    E H    E  H    E H    E
||-----------------------------------------------------||
||o-^10----10-10----10-^8----8-8----8-^6----6-6----6\-o||
||--^-9-----9--9-----9-^7----7-7----7-^5----5-5----5\--||
||--^-7-----7--7-----7-^5----5-5----5-^3----3-3----3\--||
||o-^-7-----7--7-----7-^5----5-5----5-^3----3-3----3\-o||
||--^-7-----7--7-----7-^5----5-5----5-^3----3-3----3\--||


   Pre-Verse / Chorus
    $$                                To Dbl. Coda
    $
    A5                 G5             F5
    Gtr III
     H     E  H     E  H    E H    E  H    E H    E    4x
||-----------------------------------------------------||
||o-10----10-10----10--8----8-8----8--6----6-6----6\--o||
||---9-----9--9-----9--7----7-7----7--5----5-5----5\---||
||---7-----7--7-----7--5----5-5----5--3----3-3----3\---||
||o--7-----7--7-----7--5----5-5----5--3----3-3----3\--o||
||---7-----7--7-----7--5----5-5----5--3----3-3----3\---||
|
|   Gtr IV
|    H     E  H     E  H    E H    E  H    E H    E    4x
||---x-----x--x-----x\-x----x-x----x\-x----x-x----x\---||
||o-10----10-10----10\-8----8-8----8\-6----6-6----6\--o||
||---x-----x--x-----x\-x----x-x----x\-x----x-x----x\---||
||---x-----x--x-----x\-x----x-x----x\-x----x-x----x\---||
||o--7-----7--7-----7\-5----5-5----5\-3----3-3----3\--o||
||---7-----7--7-----7\-5----5-5----5\-3----3-3----3\---||


   Verses
                                            D.S.S.
    A5            N.G5            N.F5            N.C.
   12/4
    Gtrs III, IV
                  PM              PM              PM
    E E E E E E E E E E E E E E E E E E E E E E E E  4x
||---------------------------------------------------||
||o-------------------------------------------------o||
||---------------------------------------------------||
||--7-7-7-7-7-7-7Sx-5-5-5-5-5-5-5Sx-3-3-3-3-3-3-3Sx--||
||o-7-7-7-7-7-7-7Sx-5-5-5-5-5-5-5Sx-3-3-3-3-3-3-3Sx-o||
||--7-7-7-7-7-7-7S5-5-5-5-5-5-5-5S3-3-3-3-3-3-3-3S7--||


 Solo
  A5                       G5                             F5
  Gtrs III, IV
                         PM                             PM                      PM
    E  E  E  E  E  E  E  E  E  E  E  E        E   E  E  E  E  E  E  E  E  E  E  E
|---------------------------------------------------------------------------------|
|---------------------------------------------------------------------------------|
|---------------------------------------------------------------------------------|
|---7--7--7--7--7--7--7S=x--5--5--5--5--------5---5--5S=x--3--3--3--3--3--3--3S=x-|
|---7--7--7--7--7--7--7S=x--5--5--5--5--------5---5--5S=x--3--3--3--3--3--3--3S=x-|
|---7--7--7--7--7--7--7S=5--5--5--5--5--------5---5--5S=3--3--3--3--3--3--3--3S=7-|
|
| Gtr V
|                                    ~~~~~~~~~~~~
|   E  E  E  E  E  E  E  E  E  E  E  E       +E   E  E  E  E  E  E  E  E  E  E  E
|---------------------------------------------------------------------------------|
|-----10-15h16p15h16p15h16p15----15--------------16-15-13-13-15-15----------15-13-|
|-/11-------------------------15----17b18.5r(17)-------------------14-15-17-------|
|---------------------------------------------------------------------------------|
|---------------------------------------------------------------------------------|
|---------------------------------------------------------------------------------|


                                             D.S. al Dbl. Coda
  A5                            G5              F5
  Gtr V
                         ~~~
    E       +E   E  Q    Q    W               W               E
|---------------------------------------------------------------|
|-/15b16.5r(15)-------------------------------------------------|
|---------------17-14---17\-------------------------------------|
|---------------------------------------------------------------|
|---------------------------------------------------------------|
|---------------------------------------------------------------|
|
| Gtrs III, IV
|                             PM              PM              PM
|   E        E   E  E E  E  E E E E E E E E E E E E E E E E E E
|---------------------------------------------------------------|
|---------------------------------------------------------------|
|---------------------------------------------------------------|
|---7--------7---7--7-7--7--7Sx-5-5-5-5-5-5-5Sx-3-3-3-3-3-3-3Sx-|
|---7--------7---7--7-7--7--7Sx-5-5-5-5-5-5-5Sx-3-3-3-3-3-3-3Sx-|
|---7--------7---7--7-7--7--7S5-5-5-5-5-5-5-5S3-3-3-3-3-3-3-3S7-|


   Outro
    &&
    A5                     G5              F5
    Gtr III
                         PM              PM              PM
     E  E  E  E  E  E  E E E E E E E E E E E E E E E E E E  3x
||----------------------------------------------------------||
||o--------------------------------------------------------o||
||----------------------------------------------------------||
||---7--7--7--7--7--7--7Sx-5-5-5-5-5-5-5Sx-3-3-3-3-3-3-3Sx--||
||o--7--7--7--7--7--7--7Sx-5-5-5-5-5-5-5Sx-3-3-3-3-3-3-3Sx-o||
||---7--7--7--7--7--7--7S5-5-5-5-5-5-5-5S3-3-3-3-3-3-3-3S7--||
|
|   Gtr IV
|    E  E  E  E  E  E  E E E E E E E E E E E E E E E E E E  3x
||----------------------------------------------------------||
||o-10-10-10-10-10-10-10Sx-8-8-8-8-8-8-8Sx-6-6-6-6-6-6-6Sx-o||
||---9--9--9--9--9--9--9Sx-7-7-7-7-7-7-7Sx-5-5-5-5-5-5-5Sx--||
||---7--7--7--7--7--7--7Sx-5-5-5-5-5-5-5Sx-3-3-3-3-3-3-3Sx--||
||o--7--7--7--7--7--7--7Sx-5-5-5-5-5-5-5Sx-3-3-3-3-3-3-3Sx-o||
||---7--7--7--7--7--7--7S5-5-5-5-5-5-5-5S3-3-3-3-3-3-3-3S7--||

Lyrics:

Back then, so long ago
When we were young
We were as close as can be
And we swore we'd be friends until the end
Well were were...because this is the end for you

You've betrayed me one too many times
And now it's too late for sorry
I've heard that too many times before
I never thought it would would come to this, but it has
So now my dear friend, I bid you farewell
And I'LL SEE YOU IN HELL.

And now I stand here
With tears in my eyes and a gun in my hand
I've pulled the trigger that silenced you for good.
No longer do I have to deal with anymore or your heartless lies
May you Rot In Peace, My Dear Betrayer

You've betrayed me one too many times
And now it's too late for sorry
I've heard that too many times before
I never thought it would would come to this, but it has
So now my dear friend, I bid you farewell
And I'LL SEE YOU IN HELL.
Добавлено: 09.09.2013
Другие материалы по этой песне:
  • Аккорды и текст

Страница создана 09.09.2013
http://primanota.ru/misc-your-songs/brian-marshall-my-dear-betrayer-chords.htm
Привет, Гость.
Предлагаем пройти революционный курс по гитаре.
Подарок от PrimaNota.Ru, забирай!