PrimaNota.ru - самый крупный в мире бесплатный архив песенных текстов, аккордов, табулатур и нот


Misc Your Songs - Annie G - Dismal Lament - таба

Регистрация Запомнить меня
Войти через:  Facebook Google Twitter Vk Yandex Mail.ru

Misc Your Songs - Annie G - Dismal Lament - таба

Печатать
Просмотров: 86
Уроки эстрадного вокала в Санкт-Петербурге
                                  * * * * * * * * *
                                  * DISMAL LAMENT *
                                  * * * * * * * * *



Guitar I (Lead)
                                               Rit.    Fermata  
     E  E  E  E  E  E  E  E     E  E  E  E  E  E    E  E        
E||--------------------------|---------------------------------|
B||--------------3--1--------|---------------------------------|
G||--0--3--2--0--------3--2--|--0--3--2--0---------------------|
D||--------------------------|--------------4------------------|
A||--------------------------|-----------------6----4--5-------|
E||--------------------------|---------------------------------|


  E  E  E  E  E  E  E  E     E  E  E  E  H           E  E  E  E  E  E  E  E   
--------------------------|-----------------------|--------------------------|
--------------3-----4--1--|--3--1-----------------|--------------3--1--------|
--0--3--2--0-----0--------|--------3--2-----------|--0--3--2--0--------3--2--|
--------------------------|--------------5--------|--------------------------|
--------------------------|-----------------------|--------------------------|
--------------------------|-----------------------|--------------------------|


  E  E  E  E  E  E  E  E     E  E  E  E  E  E  E  E     E  E  E  E  H         
--------------------------|--------------------------|-----------------------|
--------------------------|--------------3-----4--1--|--3--1-----------------|
--0--3--2--0--------------|--0--3--2--0-----0--------|--------3--2-----------|
--------------4-----------|--------------------------|--------------5--------|
-----------------6--4--5--|--------------------------|-----------------------|
--------------------------|--------------------------|-----------------------|


  E  E  E  E  E  E  E  E     E  E  E  E  Q.     E     E  E  E  E  E  E  Q     
--------------------------|------------------------|-------------------------|
-----------------1--------|-----3--1------------4--|--3-----4-----3--1--3----|
--0--3--2--0--2-----3--2--|--3--------3--2---------|-----0-----0-------------|
--------------------------|------------------------|-------------------------|
--------------------------|------------------------|-------------------------|
--------------------------|------------------------|-------------------------|


  E  E  E  E  E  E     H        E  E     E  E  E  E  E  E  E  E  E  E   
-----------------3--|--2--------3--2--|--------------------------------|
--3--1--3--2--3-----|-----------------|-----4-----3-----2--------------|
--------------------|-----------------|--------------------------0--2--|
--------------------|-----------------|--5-----4-----3-----5--4--------|
--------------------|-----------------|--------------------------------|
--------------------|-----------------|--------------------------------|


  W                   E  E  E  E     H        E  E  E  E   
-------------------|--------------|-----------------------|
-------------------|--4--3--1-----|-----------3--1--------|
--3----------------|-----------3--|--2--------------3--2--|
--5----------------|--------------|-----------------------|
-------------------|--------------|-----------------------|
-------------------|--------------|-----------------------|


                                                  Fermata     
  H        E  E  E  E     E  E  E  E  H           Q.      E   
-----------------------|-----------------------|-------------|
-----------1-----------|-----------------------|--3-------4--|
--0-----------3--2--0--|--2--0--2--3--2--------|-------------|
-----------------------|-----------------------|-------------|
-----------------------|-----------------------|-------------|
-----------------------|-----------------------|-------------|


  E  E  E  E  E  E  Q       E  E  E  E  E  E  E  E     E  E  E  E  E  E  E  E   
-------------------------|-----------------3--2-----|--------------------------|
--3-----4-----3--1--3----|--3--1--3--2--3--------4--|--3-----4-----3--1--3-----|
-----0-----0-------------|--------------------------|-----0-----0-----------0--|
-------------------------|--------------------------|--------------------------|
-------------------------|--------------------------|--------------------------|
-------------------------|--------------------------|--------------------------|


  E  E  E  E  H           Q.     E  Q.     E     Q.     E  E  E  E  E   
-----------------------|---------3--2------5--|--3------6--5--3--------|
-----------------------|--3-------------------|--3------------------3--|
--7--5--8--6--7--------|--3---------2---------|--3---------------6-----|
--7-----8-----7--------|----------------------|------------------------|
--5-----6-----5--------|----------------------|------------------------|
-----------------------|----------------------|------------------------|


                                                       |-3-|             
  Q.     E  Q.     E     Q    E  E  H           Q.     S S S Q.     S S  
----------------------|----------2--3--------|---------2-3---2------5-2-|
--3------1------------|--3----3-----3--------|--3----------4------------|
--3---------2------3--|--3----------3--------|--3------------2----------|
------------4---------|----------------------|--------------------------|
----------------------|----------------------|--------------------------|
----------------------|----------------------|--------------------------|


  Q.     E  Q     Q       Q.     E  Q    E  E     E  E  E  E  Q    Q     
--3------6--5----10----|-----------------------|------------------------|
--3--------------10----|--3------4--1----1-----|--------------3---------|
--3--------------11----|--3---------2-------2--|--3-----2-----3---------|
-----------------------|-----------------------|-----0-----4--5---------|
-----------------------|-----------------------|------------------------|
-----------------------|-----------------------|-------------------3----|


  Q    Q    Q       Q    Q    Q       Q    Q    Q       Q    Q    Q     
-----------------|-----------------|-----------------|-----------------|
------------3----|-----------------|------------3----|-----------------|
-------3---------|-------8----7----|-------3---------|-------8----7----|
--5--------------|--7--------------|--5--------------|--7--------------|
--5--------------|--6--------------|--5--------------|--6--------------|
-----------------|-----------------|-----------------|-----------------|


  Q    Q    Q       Q    Q    Q       Q    Q    Q       Q    Q    Q     
-----------------|-----------------|-----------------|--2--------------|
------------3----|------------2----|------------1----|-------1---------|
-------3---------|-------3---------|-------2---------|--2---------2----|
--5--------------|--5--------------|--4--------------|-----------------|
--5--------------|--4--------------|--3--------------|-----------------|
-----------------|-----------------|-----------------|-----------------|


  Q    Q    Q       Q    Q    Q       Q    Q    Q       Q    Q    Q     
-----------------|-----------------|-----------------|-----------------|
------------3----|-----------------|------------3----|-----------------|
-------3---------|-------8----7----|-------3---------|-------8----7----|
--5--------------|--7--------------|--5--------------|--7--------------|
--5--------------|--6--------------|--5--------------|--6--------------|
-----------------|-----------------|-----------------|-----------------|


  Q    Q    Q       Q    Q    Q       Q    Q    Q       Q    Q    Q     
-----------------|-----------------|-----------------|-----------------|
-------8----7----|-----------------|------------2----|------------2----|
-----------------|-------8----7----|-------3---------|-------3---------|
--8--------------|--7--------------|--5--------------|--5--------------|
--7--------------|--6--------------|--4--------------|--4--------------|
-----------------|-----------------|-----------------|-----------------|


  Q    Q    Q       Q    Q    Q       Q    Q    Q       Q    Q    Q     
-----------------|-----------------|-----------------|-----------------|
------------1----|-------1---------|------------3----|-----------------|
-------2---------|------------2----|-------3---------|-------8----7----|
--4--------------|--4--------------|--5--------------|--7--------------|
--3--------------|--3--------------|--5--------------|--6--------------|
-----------------|-----------------|-----------------|-----------------|


  Q    Q    Q       Q    Q    Q       Q    Q    Q        Q    Q    Q     
-----------------|-----------------|-----------------|------------------|
------------3----|-----------------|-----------------|------------------|
-------3---------|-------8----7----|-----------------|------------------|
--5--------------|--7--------------|--5----7----8----|--10----8----7----|
--5--------------|--6--------------|--5----6----7----|---9----7----6----|
-----------------|-----------------|-----------------|------------------|


  Q    Q    Q       H.              Q    Q    Q       Q    Q    Q     
-----------------|---------------|-----------------|-----------------|
-----------------|---------------|-----------------|-----------------|
-----------------|---------------|------------3----|-----------------|
--5----4----4----|--5------------|-------4---------|-------9----8----|
--5----5----3----|--5------------|--6--------------|--8--------------|
-----------------|---------------|--6--------------|--7--------------|


  Q    Q    Q       Q    Q    Q       Q    Q    Q       Q    Q    Q     
-----------------|-----------------|-----------------|-----------------|
-----------------|-----------------|-----------------|-----------------|
------------3----|-----------------|------------3----|-----------------|
-------4---------|-------9----8----|-------4---------|-------4----7----|
--6--------------|--8--------------|--6--------------|--6--------------|
--6--------------|--7--------------|--6--------------|--5--------------|


  Q    Q    Q       Q    Q    Q       Q    Q    Q       Q    Q    Q     
-----------------|-----------------|-----------------|-----------------|
-----------------|--3--------------|-----------------|-----------------|
-----------------|-------1---------|------------3----|-----------------|
-------3----6----|--3---------3----|-------4---------|-------9----8----|
--5--------------|-----------------|--6--------------|--8--------------|
--4--------------|-----------------|--6--------------|--7--------------|


  Q    Q    Q       Q    Q    Q       Q    Q    Q       Q    Q    Q     
-----------------|-----------------|-----------------|-----------------|
-----------------|-----------------|-----------------|-----------------|
------------3----|-----------------|-------8----7----|-----------------|
-------4---------|-------9----8----|-----------------|-------9----8----|
--6--------------|--8--------------|--9--------------|--8--------------|
--6--------------|--7--------------|--8--------------|--7--------------|


  Q    Q    Q       Q    Q    Q       Q    Q    Q       Q    Q    Q     
-----------------|-----------------|-----------------|-----------------|
-----------------|-----------------|-----------------|-----------------|
-----------------|-----------------|-----------------|-----------------|
-------4----7----|-------4----7----|-------3----6----|-------6----3----|
--6--------------|--6--------------|--5--------------|--5--------------|
--5--------------|--5--------------|--4--------------|--4--------------|


  Q    Q    Q       Q    Q    Q       Q    Q    Q       Q    Q    Q     
-----------------|-----------------|-----------------|-----------------|
-----------------|-----------------|-----------------|-----------------|
------------3----|-----------------|------------3----|-----------------|
-------4---------|-------9----8----|-------4---------|-------9----8----|
--6--------------|--8--------------|--6--------------|--8--------------|
--6--------------|--7--------------|--6--------------|--7--------------|


  Q    Q    Q       Q    Q    Q       Q    Q    Q       H.            
-----------------|-----------------|-----------------|---------------|
-----------------|-----------------|-----------------|---------------|
-----------------|-----------------|-----------------|---------------|
-------3----4----|--6----4----3----|-------4----3----|--4------------|
--6----2----3----|--5----3----2----|--6----3----2----|--6------------|
--6--------------|-----------------|--6--------------|--6------------|


    T                               
    H.               H.             
--(10)------------|--L------------||
------------------|---------------||
------------------|---------------||
----L-------------|--L------------||
----L-------------|--L------------||
----L-------------|--L------------||










Guitar II (Rhythm)
     W                   W                   W                 
E||-------------------|-------------------|-------------------|
B||-------------------|-------------------|-------------------|
G||-------------------|-------------------|-------------------|
D||-------------------|-------------------|-------------------|
A||-------------------|-------------------|-------------------|
E||-------------------|-------------------|-------------------|


            ^                                                      
  Q    Q    H           Q    Q    Q    Q       Q    Q    H         
---------------------|----------------------|---------------------|
------------3--------|----------------------|---------------------|
------------3--------|----------------------|---------------------|
------------5--------|----------------------|---------------------|
---------------------|--5---------5----6----|--5------------------|
---------------------|-------6--------------|-------6----5--------|


  Q    Q    Q    Q       E  E  E  E  H           Q    Q    Q    Q     
----------------------|-----------------------|----------------------|
----------------------|-----------------------|----------------------|
----------------------|-----------------------|----------------------|
----------------------|--7--5-----------------|----------------------|
--5---------5----6----|--------8--7--5--------|--5---------6---------|
-------6--------------|--------------6--------|-------6---------6----|


  Q    Q    E  E  E  E     Q    Q    Q    Q       Q    Q    Q     
------------------------|----------------------|-----------------|
------------------------|----------------------|-----------------|
------------------------|----------------------|-----------------|
--3----4----------------|----------------------|-----------------|
------------3--1--0-----|----------------------|-----------------|
---------------------2--|--3----6----5----3----|--5----3----2----|


  H        Q       Q    Q    Q    Q    Q       E  E  E  E  H         
----------------|---------------------------|-----------------------|
----------------|---------------------------|-----------------------|
----------------|---------------------------|-----------------------|
----------------|---------------------------|-----------------------|
-----------6----|--6----5----4----5----5----|-----------4--5--------|
--5-------------|---------------------------|--3--5--6--------------|


  Q    Q       Q    Q    Q    Q       Q    Q    Q    Q     
------------|----------------------|----------------------|
------------|----------------------|----------------------|
------------|----------------------|----------------------|
------------|-----------------4----|------------4----1----|
--3---------|-------3---------5----|-------5----3----3----|
-------6----|--5---------5---------|--6-------------------|


  Q    Q    H           Q.     E     Q    Q    Q    Q     
---------------------|------------|----------------------|
---------------------|------------|----------------------|
------------2--------|------------|----------------------|
--1----4----4--------|--4------4--|----------------------|
--3----3----3--------|--0------0--|--1----1----0----1----|
---------------------|------------|--3----3----2----3----|


  Q    Q    Q    E  E     Q    Q    Q    Q       Q    Q    E  E  E  E   
-----------------------|----------------------|------------------------|
-----------------------|----------------------|------------------------|
-----------------------|----------------------|------------------------|
-----------------------|----------------------|------------------------|
--0----1----0----3--0--|--1----1----0----1----|--5----6----5-----0--1--|
--2----3----2----5--2--|--3----3----2----3----|--2----3----2--3--------|


  E  E  E  E  E  E  E  E     E  E  E  E  E  E  E  E   
--------------------------|--------------------------|
--------------3--1--------|--------------------------|
--0--3--2--0--------3--2--|--0--3--2--0--------------|
--------------------------|--------------4-----------|
--------------------------|-----------------6--4--5--|
--------------------------|--------------------------|


  E  E  E  E  E  E  E  E     E  E  E  E  E  E  E  E   
--------------------------|--------------------------|
--------------3-----4--1--|--3-----------------------|
--0--3--2--0-----0--------|-----5--3--2--0--2--3--2--|
--------------------------|--------------------------|
--------------------------|--------------------------|
--------------------------|--------------------------|


  E  E  E  E  E  E  E  E     E  E  E  E  E  E  E  E   
--------------------------|--------------------------|
--------------3--1--------|--------------------------|
--0--3--2--0--------3--2--|--0--3--2--0--------------|
--------------------------|--------------4-----------|
--------------------------|-----------------6--4--5--|
--------------------------|--------------------------|


                             ^    ^    ^                              
  E  E  E  E  E  E  E  E     Q    Q    H           E  E  E  E  E  E   
--------------------------|------------3--------|--------------------|
--------------3-----4--1--|--3---------3--------|--------------------|
--0--3--2--0-----0--------|--3----5----3--------|--------------7-----|
--------------------------|--5----7----5--------|--5-----7--------5--|
--------------------------|-------5-------------|-----5-----5--------|
--------------------------|---------------------|--------------------|


  E  E  E  E  E  E     E  E  E  E  E  E     E  E  E  E  E  E   
--------------------|--------------------|--------------------|
--------------------|--------------------|--------------------|
--------8-----7-----|--------------7-----|--------8-----7-----|
--7--------7--------|--5-----7--------5--|--7--------7--------|
-----6-----------6--|-----5-----5--------|-----6-----------6--|
--------------------|--------------------|--------------------|


  E  E  E  E  E  E     E  E  E  E  E  E     E  E  E  E  E  E   
--------------------|--------------------|--------------------|
--------------------|--------------------|--------------------|
--------------7-----|--------3-----------|--------2-----------|
--5-----7--------5--|--5-----------5-----|--4-----------4-----|
-----5-----5--------|-----4-----4-----4--|-----3-----3-----3--|
--------------------|--------------------|--------------------|


  E  E  E  E  E  E     E  E  E  E  E  E     E  E  E  E  E  E   
--------------------|--------------------|--------------------|
--------------------|--------------------|--------------------|
--------2-----------|--------------7-----|--------8-----7-----|
--4-----------4-----|--5-----7--------5--|--7--------7--------|
-----3-----3-----3--|-----5-----5--------|-----6-----------6--|
--------------------|--------------------|--------------------|


  E  E  E  E  E  E     E  E  E  E  E  E     E  E  E  E  E  E   
--------------------|--------------------|--------------------|
--------------------|--------------------|--------------------|
--------------7-----|--------8-----7-----|--------8-----7-----|
--5-----7--------5--|--7--------7--------|--8--------------8--|
-----5-----5--------|-----6-----------6--|-----7-----7--------|
--------------------|--------------------|--------------------|


  E  E  E  E  E  E     E  E  E  E  E  E     E  E  E  E  E  E   
--------------------|--------------------|--------------------|
--------------------|--------------------|--------------------|
--------8-----7-----|--------3-----------|--------3-----------|
--7--------7--------|--5-----------5-----|--5-----------5-----|
-----6-----------6--|-----4-----4-----4--|-----4-----4-----4--|
--------------------|--------------------|--------------------|


  E  E  E  E  E  E     E  E  E  E  E  E     E  E  E  E  E  E   
--------------------|--------------------|--------------------|
--------------------|--------------------|--------------------|
--------2-----------|--------2-----------|--------------7-----|
--4-----------4-----|--4-----------4-----|--5-----7--------5--|
-----3-----3-----3--|-----3-----3-----3--|-----5-----5--------|
--------------------|--------------------|--------------------|


  E  E  E  E  E  E     E  E  E  E  E  E     E  E  E  E  E  E   
--------------------|--------------------|--------------------|
--------------------|--------------------|--------------------|
--------8-----7-----|--------------7-----|--------8-----7-----|
--7--------7--------|--5-----7--------5--|--7--------7--------|
-----6-----------6--|-----5-----5--------|-----6-----------6--|
--------------------|--------------------|--------------------|


  E  E  E  E  E  E      E  E  E  E  E  E     E  E  E  E  E  E   
--------------------|---------------------|--------------------|
--------------------|---------------------|--------------------|
--------------------|---------------------|--------------------|
--5-----7-----8-----|--10-----8-----7-----|--5-----4-----4-----|
-----5-----6-----7--|------9-----7-----6--|-----5-----5-----3--|
--------------------|---------------------|--------------------|


  E  E  Q    Q       E  E  E  E  E  E     E  E  E  E  E  E   
------------------|--------------------|--------------------|
------------------|--------------------|--------------------|
------------------|--------------------|--------------------|
--5----------1----|--------------8-----|--------9-----8-----|
-----5--1---------|--6-----8--------6--|--8--------8--------|
------------------|-----6-----6--------|-----7-----------7--|


  E  E  E  E  E  E     E  E  E  E  E  E     E  E  E  E  E  E   
--------------------|--------------------|--------------------|
--------------------|--------------------|--------------------|
--------------------|--------------------|--------------------|
--------------8-----|--------9-----8-----|--------------8-----|
--6-----8--------6--|--8--------8--------|--6-----8--------6--|
-----6-----6--------|-----7-----------7--|-----6-----6--------|


  E  E  E  E  E  E     E  E  E  E  E  E     E  E  E  E  E  E   
--------------------|--------------------|--------------------|
--------------------|--------------------|--------------------|
--------------------|--------------------|--------------------|
--------4-----------|--------3-----------|--------3-----------|
--6-----------6-----|--5-----------5-----|--5-----------5-----|
-----5-----5-----5--|-----4-----4-----4--|-----4-----4-----4--|


  E  E  E  E  E  E     E  E  E  E  E  E     E  E  E  E  E  E   
--------------------|--------------------|--------------------|
--------------------|--------------------|--------------------|
--------------------|--------------------|--------------------|
--------------8-----|--------9-----8-----|--------------8-----|
--6-----8--------6--|--8--------8--------|--6-----8--------6--|
-----6-----6--------|-----7-----------7--|-----6-----6--------|


  E  E  E  E  E  E     E  E  E  E  E  E     E  E  E  E  E  E   
--------------------|--------------------|--------------------|
--------------------|--------------------|--------------------|
--------------------|--------4-----3-----|--------------------|
--------9-----8-----|--4--------------4--|--------9-----8-----|
--8--------8--------|-----3-----3--------|--8--------8--------|
-----7-----------7--|--------------------|-----7-----------7--|


  E  E  E  E  E  E     E  E  E  E  E  E     E  E  E  E  E  E   
--------------------|--------------------|--------------------|
--------------------|--------------------|--------------------|
--------------------|--------------------|--------------------|
--------4-----------|--------4-----------|--------3-----------|
--6-----------6-----|--6-----------6-----|--5-----------5-----|
-----5-----5-----5--|-----5-----5-----5--|-----4-----4-----4--|


  E  E  E  E  E  E     E  E  E  E  E  E     E  E  E  E  E  E   
--------------------|--------------------|--------------------|
--------------------|--------------------|--------0-----------|
--------------------|--------------------|--------------3-----|
--------3-----------|--------------8-----|--3--------3--------|
--5-----------5-----|--6-----8--------6--|-----2-----------2--|
-----4-----4-----4--|-----6-----6--------|--------------------|


  E  E  E  E  E  E     E  E  E  E  E  E     E  E  E  E  E  E   
--------------------|--------------------|--------------------|
--------------------|--------0-----------|--------------------|
--------------------|--------------3-----|--------------------|
--------------8-----|--3--------3--------|--------3-----4-----|
--6-----8--------6--|-----2-----------2--|--6--------2-----3--|
-----6-----6--------|--------------------|-----6--------------|


                                                              T              
  E  E  E  E  E  E     E  E  E  E  E  E     H.                H.             
--------------------|--------------------|---------------|------------------|
--------------------|--------------------|--4------------|----L-------------|
--------------------|--------------------|--3------------|----L-------------|
--6-----4-----3-----|--------4-----3-----|--4------------|----L-------------|
-----5-----3-----2--|--6--------3-----2--|--6------------|----L-------------|
--------------------|-----6--------------|---------------|--(10)------------|


  H.             
---------------||
--L------------||
--L------------||
--L------------||
--L------------||
--L------------||




Duration Legend
---------------
W - whole
H - half
Q - quarter
E - 8th
S - 16th
T - 32nd
X - 64th
. - note dotted
|-n-|  - n-tuplets


Tablature Legend
----------------
L - tied note
x - dead note
g - grace note
(n) - ghost note
> - accentuded note
NH - natural harmonic
AH - artificial harmonic
TH - tapped harmonic
SH - semi harmonic
PH - pitch harmonic
h - hammer on
p - pull off
b - bend
br - bendRelease
pb - preBend
pbr - preBendRelease
brb - bendReleaseBend
\n/ - tremolo bar dip
\n - tremolo bar dive
-/n - tremolo bar Release up
/n\ - tremolo bar inverted dip
/n - tremolo bar return
-\n - tremolo bar Release down
S - shift slide
s - legato slide
/ -  slide into from below or out of upwards
\ -  slide into from above or out of downwards
~ - vibrato
W - wide vibrato
tr - trill
TP - tremolo picking
T - tapping
S - slap
P - pop
< - fade in
^ - brush up
v - brush down
Добавлено: 24.08.2013
Другие материалы по этой песне:
  • Аккорды и текст

Страница создана 24.08.2013
http://primanota.ru/misc-your-songs/annie-g-dismal-lament-chords.htm
Привет, Гость.
Предлагаем пройти революционный курс по гитаре.
Подарок от PrimaNota.Ru, забирай!