PrimaNota.ru - самый крупный в мире бесплатный архив песенных текстов, аккордов, табулатур и нот


Misc Your Songs - A Tribute To Alex - Gannon Bracewell - таба

Регистрация Запомнить меня
Войти через:  Facebook Google Twitter Vk Yandex Mail.ru

Misc Your Songs - A Tribute To Alex - Gannon Bracewell - таба

Печатать
Просмотров: 57
As recorded by Gannon Bracewell

Music by Gannon Bracewell
Arranged by Gannon Bracewell
Transcribed by Gannon Bracewell

          G#               G#(type 2)                G                   Bb
      4 6 6 5 4 4          4 6 6 5 4 4          3 5 5 4 3 3          6 8 8 7 6 6

          Eb                    F                    C
      x 6 8 8 8 x          1 3 3 2 1 1          x 3 5 5 5 x

Gtr I (E A D G B E) - 'Lead'
Gtr II (E A D G B E) - 'Acoustic'
Gtr III (D A D G B E) - 'Rythem'
Gtr IV (E A D G B E) - 'Strings'

 Intro
  Q=100
  D                            Cm             G     F
 4/4
  Gtr II
   Q  Q  Q  Q    E H..          Q  Q  Q  Q     H     H
|--2--3--2--2--|-------------|--3-----1--3--|-^3----^1--|
|-^3--------3--|-3-3---------|-^4--4--------|-^3----^1--|
|-^2--------2--|-2-2---------|-^5-----------|-^4----^2--|
|-^0--------0--|-------------|-^5-----------|-^5----^3--|
|--------------|-------------|--------------|-----------|
|--------------|-------------|--------------|-----------|
   W                            W


 Main Theme
  Q=60
  G#                        Eb                        Bb
  Gtr II
  E S S E S S E S S E S S   E S S E S S E S S E S S   E S S E S S E S S E S S
  | | | | | | | | | | | |   | | | | | | | | | | | |   | | | | | | | | | | | |
  / / / / / / / / / / / /   / / / / / / / / / / / /   / / / / / / / / / / / /

  Gtr IV
  W                         W                         W
|-4-----------------------|-------------------------|-------------------------|
|-------------------------|-4-----------------------|-------------------------|
|-------------------------|-------------------------|-3-----------------------|
|-------------------------|-------------------------|-------------------------|
|-------------------------|-------------------------|-------------------------|
|-------------------------|-------------------------|-------------------------|


  G#                                                  Eb
                          Gtr II
  E S S E S S E S S E S S   E S S E S S E S S E S S   E S S E S S E S S E S S
  | | | | | | | | | | | |   | | | | | | | | | | | |   | | | | | | | | | | | |
  / / / / / / / / / / / /   / / / / / / / / / / / /   / / / / / / / / / / / /

                          Gtrs I, IV
  W                         W                         W
|-------------------------|-4-----------------------|-------------------------|
|-------------------------|-------------------------|-4-----------------------|
|-------------------------|-------------------------|-------------------------|
|-6-----------------------|-------------------------|-------------------------|
|-------------------------|-------------------------|-------------------------|
|-------------------------|-------------------------|-------------------------|


  F   G    G#
  S S S  S E S S E S S S S S S
  | | |  | | | | | | | | | | |
  / / /  / / / / / / / / / / /

  E E H.
|-1-3-4------------------------|
|------------------------------|
|------------------------------|
|------------------------------|
|------------------------------|
|------------------------------|


  Bb                         G
  E S S E S S  E S S E S S   E S S E S S E S S E S S
  | | | | | |  | | | | | |   | | | | | | | | | | | |
  / / / / / /  / / / / / /   / / / / / / / / / / / /

  E E E E E Q.               W
|-6-4-3-1-3----------------|-------------------------||
|-----------4--------------|-1-----------------------||
|--------------------------|-------------------------||
|--------------------------|-------------------------||
|--------------------------|-------------------------||
|--------------------------|-------------------------||


 Solo
  F   G   G#
  S S S S E    S  S  E    S S  S    S S S
  | | | | |    |  |  |    | |  |    | | |
  / / / / /    /  /  /    / /  /    / / /

  Gtr I
  Q       S  S S  S  Q         Q
|-----------------------------------------|
|-----------------------------------------|
|--------------8-10-10b12-----10b12-------|
|---------8-10----------------------------|
|-----------------------------------------|
|-----------------------------------------|


                      Eb                                         Bb
   E      S  S  E S S  E   S S E    S S    E  S    S E  S    S E S S E S S
   |      |  |  | | |  |   | | |    | |    |  |    | |  |    | | | | | | |
   /      /  /  / / /  /   / / /    / /    /  /    / /  /    / / / / / / /

   E     +E     Q      S Q       S  S S    E  Q         Q        Q     E
|---------------------------------------|----------------------------------|
|---------------------------------------|----11--------11--------9-----9---|
|-10b12r(10)---10---------------------8-|-10-10b12-----10b12-----8-----8---|
|---------------------10-8-------8-10---|----------------------------------|
|---------------------------------------|----------------------------------|
|---------------------------------------|----------------------------------|


   E  E E E E E E E    W                                    W
   |  | | | | | | |
   /  / / / / / / /

  +E  Q   Q   Q   E    S E S  S  S  S  S  S S S S S S S S   Q  S S S S Q  Q
|-------------------|-------------------------------------|-----------------|
|-(9)-8---8---8---8-|-------------------------------------|-----------------|
|-(8)-8---8---8---8-|------8-10-12-13-12-10-7-8-7-5-3-5-3-|-5--5-3-1-0-1--3-|
|-------------------|-10-8--------------------------------|-----------------|
|-------------------|-------------------------------------|-----------------|
|-------------------|-------------------------------------|-----------------|


                      G#
  S S S S S S S S S S Q E
  | | | | | | | | | | | |
  / / / / / / / / / / / /

  T T T T T T T T T T T T T  T T  T  T  T  T  Q   E  T
|------------------------------------------------------|
|------------------------------------------------------|
|-1h3p1h3h5p3h5h7p5h7h8p7h8h10p8h10h12p10h12h13--13-13-|
|------------------------------------------------------|
|------------------------------------------------------|
|------------------------------------------------------|


          Eb
   Q   Q   Q   Q     E  E  E  E  S  S  S  S  S  S  S  S       Q   Q   H
   |   |   |   |     |  |  |  |  |  |  |  |  |  |  |  |       |   |   |
   /   /   /   /     /  /  /  /  /  /  /  /  /  /  /  /       /   /   /

   Q   Q   Q   Q     S  S  S  S  S  S  S  S  S  S  S  S  Q    Q   Q   H
|-----------------|----------------------------------------|---------------||
|-----------------|----------------------------------------|---------------||
|-13--13--15--15--|-12-13-12-15-13-15-17-15-17-19-17-19-20-|-20--20--20----||
|-----------------|----------------------------------------|---------------||
|-----------------|----------------------------------------|---------------||
|-----------------|----------------------------------------|---------------||


 Interlude
  Gtr IV
  W           W          W          W
|-4--------|-11--------|-6--------|-3----|
|----------|-----------|----------|------|
|----------|--8--------|----------|------|
|-6--------|-----------|-8--------|-5----|
|----------|--6--------|----------|------|
|-4--------|-----------|-6--------|-3----|


  H=H
  G#
  Gtr II
  S S Q  S S Q  S S S S   S S S S S S S S S S S S S S S S
  | |    | |    | | | |   | | | | | | | | | | | | | | | |
  / /    / /    / / / /   / / / / / / / / / / / / / / / /

  Gtr III
  W                       H               S S S S S S S S
|-----------------------|---------------------------------||
|-----------------------|---------------------------------||
|-----------------------|---------------------------------||
|-----------------------|-----------------6-6-6-6-6-6-6-6-||
|-----------------------|-----------------6-6-6-6-6-6-6-6-||
|-----------------------|-----------------6-6-6-6-6-6-6-6-||


 Outro-Solo
  Q=77
  Gtr I
  S S S S S S S S S S S S S S S S   S S S S S S S S S S S S S S S S
|---------------------------------|----------------------------------|
|-8-8-8-6-4-----------------------|----------------------------------|
|-----------5-3-------------------|----------------------------------|
|---------------5-6-3-1-1---1-----|-6-6-6-6-6-6-6-6-5-3-1-1-1-1-1-1--|
|-------------------------1-------|----------------------------------|
|-----------------------------6-6-|----------------------------------|
|
| Gtr III
| W                                 W
|---------------------------------|----------------------------------|
|---------------------------------|----------------------------------|
|---------------------------------|----------------------------------|
|-6-------------------------------|-3--------------------------------|
|-6-------------------------------|-3--------------------------------|
|-6-------------------------------|-3--------------------------------|


  S S S S S S S S S S S S S S S S   S S S S S S S S S S S S S S S S
|---------------------------------|----------------------------------|
|---------------------------------|----------------------------------|
|---------------------------------|----------------------------------|
|-3-3-3-3-3-3-3-3-1-0-------------|-6-6-6-6-6-6-6-6-1-1-1-1-1-1-1-1--|
|---------------------3-1-1-1-1-1-|----------------------------------|
|---------------------------------|----------------------------------|
|
| E E E E E E E E                   E E E E E E E E
|---------------------------------|----------------------------------|
|---------------------------------|----------------------------------|
|---------------------------------|----------------------------------|
|-3-3-3-3-3-3-3-3-----------------|-6-6-6-6-6-6-6-6------------------|
|-3-3-3-3-3-3-3-3-----------------|-6-6-6-6-6-6-6-6------------------|
|-3-3-3-3-3-3-3-3-----------------|-6-6-6-6-6-6-6-6------------------|


  S S S S S S S S  S  S  S  S S S S S    S  S  S  S S S S S S S S S S S S S
|-----------------------------8-8-8-8-|-11-11-11-11-8-8-8-8------------------|
|-------------------------------------|---------------------8-8-8-8----------|
|-----------------10-10-10-10---------|-----------------------------8-8-8-8--|
|-1-1-1-1-6-6-6-6---------------------|--------------------------------------|
|-------------------------------------|--------------------------------------|
|-------------------------------------|--------------------------------------|
|
| E E E E E E E E                        Q     Q    Q   Q
|-------------------------------------|--------------------------------------|
|-------------------------------------|--------------------------------------|
|-------------------------------------|-10----10----8---8--------------------|
|-1-1-1-1-1-1-1-1---------------------|-10----10----8---8--------------------|
|-1-1-1-1-1-1-1-1---------------------|--8-----8----6---6--------------------|
|-1-1-1-1-1-1-1-1---------------------|--------------------------------------|


  S S S S S S S S S S S S S S S S
|---------------------------------|
|---------------------------------|
|-7-7-7-7-5-5-5-5-----------------|
|-----------------7-7-7-7-5-5-5-5-|
|---------------------------------|
|---------------------------------|
|
| Q   Q   Q   Q
|---------------------------------|
|---------------------------------|
|-5---5---3---3-------------------|
|-5---5---3---3-------------------|
|-3---3---1---1-------------------|
|---------------------------------|


     S  S  S  S  S  S  S  S S S S S S S S S
||--11-11-11-11-10-10-10-10-8-8-8-8-6-6-6-6---||
||o------------------------------------------o||
||--------------------------------------------||
||--------------------------------------------||
||o------------------------------------------o||
||--------------------------------------------||
|
|    S  S  S  S  S  S  S  S S S S S S S S S
||--------------------------------------------||
||o------------------------------------------o||
||---8--8--8--8--8--8--8--8-8-8-8-8-3-3-3-3---||
||---8--8--8--8--8--8--8--8-8-8-8-8-3-3-3-3---||
||o--6--6--6--6--6--6--6--6-6-6-6-6-1-1-1-1--o||
||--------------------------------------------||


  S S S S S S S S S S S S S S S S
|-1-1-1-1-3-3-3-3-4-4-4-4-8-8-8-8-|
|---------------------------------|
|---------------------------------|
|---------------------------------|
|---------------------------------|
|---------------------------------|
|
| S S S S S S S S S S S S S S S S
|---------------------------------|
|---------------------------------|
|---------------------------------|
|-6-6-6-6-6-6-6-6-6-6-6-6-6-6-6-6-|
|-6-6-6-6-6-6-6-6-6-6-6-6-6-6-6-6-|
|-6-6-6-6-6-6-6-6-6-6-6-6-6-6-6-6-|


   S  S  S  S  S  S  S  S  S  S  S  S  S  S  S  S    W
|-11-11-11-11-11-11-11-11-11-11-11-11-11-11-11-11-|-11----*|
|-------------------------------------------------|-------*|
|-------------------------------------------------|-------*|
|-------------------------------------------------|-------*|
|-------------------------------------------------|-------*|
|-------------------------------------------------|-------*|
|
|  S  S  S  S  S  S  S  S  S  S  S  S  S  S  S  S    W
|-------------------------------------------------|-------*|
|-------------------------------------------------|--8----*|
|--8--8--8--8--8--8--8--8--8--8--8--8--8--8--8--8-|--8----*|
|--8--8--8--8--8--8--8--8--8--8--8--8--8--8--8--8-|--8----*|
|--6--6--6--6--6--6--6--6--6--6--6--6--6--6--6--6-|--6----*|
|-------------------------------------------------|-------*|


Duration Legend
---------------
W - whole; H - half; Q - quarter; E - 8th; S - 16th; T - 32nd; X - 64th; a - acciaccatura
+ - note tied to previous; . - note dotted; .. - note double dotted
Uncapitalized letters represent notes that are staccato (1/2 duration)
Irregular groupings are notated above the duration line
Duration letters will always appear directly above the note/fret number it represents the
duration for.  Duration letters with no fret number below them represent rests.  Multi-
bar rests are notated in the form Wxn, where n is the number of bars to rest for.  Low
melody durations appear below the staff

Tablature Legend
----------------
 h   - hammer-on
 p   - pull-off
 b   - bend
 pb  - pre-bend
 r   - bend release (if no number after the r, then release immediately)
 /\  - slide into or out of (from/to "nowhere")
 s   - legato slide
 S   - shift slide
  - natural harmonic
[n]  - artificial harmonic
n(n) - tapped harmonic
 ~   - vibrato
 tr  - trill
 T   - tap
 TP  - trem. picking
 PM  - palm muting
\n/  - tremolo bar dip; n = amount to dip
 \n  - tremolo bar down
 n/  - tremolo bar up
/n\  - tremolo bar inverted dip
 =   - hold bend; also acts as connecting device for hammers/pulls
 <>  - volume swell (louder/softer)
 x   - on rhythm slash represents muted slash
 o   - on rhythm slash represents single note slash

Misc Legend
-----------
 |  - bar
||  - double bar
||o - repeat start
o|| - repeat end
*|  - double bar (ending)
 :  - bar (freetime)
 $  - Segno
 &  - Coda
Tempo markers -  = BPM(8/16=s8/s16), where s8 = swing 8ths, s16 = swing 16ths


Добавлено: 19.11.2013
Другие материалы по этой песне:
  • Аккорды и текст

Страница создана 19.11.2013
http://primanota.ru/misc-your-songs/a-tribute-to-alex-gannon-bracewell-chords.htm
Привет, Гость.
Предлагаем пройти революционный курс по гитаре.
Подарок от PrimaNota.Ru, забирай!