PrimaNota.ru - самый крупный в мире бесплатный архив песенных текстов, аккордов, табулатур и нот


Misc Unsigned Bands - Zero - Not My Kind Of Girl - таба, видео

Регистрация Запомнить меня
Войти через:  Facebook Google Twitter Vk Yandex Mail.ru

Misc Unsigned Bands - Zero - Not My Kind Of Girl - таба, видео

Печатать
Просмотров: 70
ZERO - Not My Kind Of Girl


The song is played Half Step Down i.e. tune your guitar one fret low. I hate it when artistes do that! X-(

Half-Step Down
Intro chords : G  Csus2  Dsus4  Csus2  G  Csus2  Dsus4

Play all verses with intro chords!

Verse 1 :

When I see you crying
And I know you're trying to get back with me
And I see you lying
And I know you're trying to get back with me


Chorus :

Am7   D       Bm7     C
I...... ain't got the time
Am7   D      Bm7   Em
I...... made up my mind
Am7    D        Bm7 C        Csus2  Dsus4 
You're just not my kind of girl


Verse 2 :

I can see you lying
Don't you know its really plain for me to see you
Its still me you're eyeing
Can't you see you and I will never be


Chorus once

Intro chords twice

SOLO

Chords : Intro chords twice and then Chorus chords one


E|----------------------------------------------------|
B|----------12--15--------------------------------12--|
G|----12-14---------16pbr14--12-------12--12--14------|
D|-------------------------------/14------------------|
A|----------------------------------------------------|
E|----------------------------------------------------|


E|-----------------------------------------------------|
B|----------12--15-------------------------------------|
G|----12-14---------16pbr14--12-------12------12b--14--|
D|-------------------------------/14------14-----------|
A|-----------------------------------------------------|
E|-----------------------------------------------------|


E|-------------15----------------------------------------------------------|
B|----12-13-15----15-12-13-12------------------------------------------12--|
G|----------------------------14b16r14-12----14--12--------12--12--14------|
D|----------------------------------------14--------14-12------------------|
A|-------------------------------------------------------------------------|
E|-------------------------------------------------------------------------|


E|----------------------------------------------------------------|
B|-------------12--13--15-----------------------------------------|
G|----12-12-14-------------14b16--14--12------14b16--14---14--12--|
D|----------------------------------------14----------------------|
A|----------------------------------------------------------------|
E|----------------------------------------------------------------|


E|------------12--14--15/17--14-------------12--------------------|
B|----13--15---------------------15--15b17------------------------|
G|---------------------------------------------14b16r14-12----14--|
D|---------------------------------------------------------14-----|
A|----------------------------------------------------------------|
E|----------------------------------------------------------------|


E|------------12--14--15/17--17b19------------|
B|----13--15-----------------------15--15h17--|
G|--------------------------------------------|
D|--------------------------------------------|
A|--------------------------------------------|
E|--------------------------------------------|


E|------------12--14--15/17--14-------------12------------------------|
B|----13--15---------------------15--15b17----------------------------|
G|---------------------------------------------14b16r14-12----14--12--|
D|---------------------------------------------------------14---------|
A|--------------------------------------------------------------------|
E|--------------------------------------------------------------------|


E|------------19--22--------|
B|--------20----------20AH--|
G|----19--------------------|
D|--------------------------|
A|--------------------------|
E|--------------------------|


Bridge :

Csus2  G  Dsus4          <--- Play these chords once, for each line

I don't wanna be
Right by your side
When I'm with you
I'm not alright
N I don't n I don't want you here with me
I can't help the way I feel
N I don't n I don't want you by my side
If you're next to me I don't feel alright


Verse 3 : (which is the same as verse 1 :P)

When I see you crying
And I know you're trying to get back with me
And I see you lying
And I know you're trying to get back with me


Chorus once


Keep playing the Intro/Verse chords.
Also, keep shouting "You're not my kind of girl".


Yenjai! Cheers!!

- Daddy Doodle (showster18@gmail.com)
Добавлено: 21.01.2014
Другие материалы по этой песне:
  • Аккорды и текст

Страница создана 21.01.2014
http://primanota.ru/misc-unsigned-bands/zero-not-my-kind-of-girl-chords.htm
Привет, Гость.
Предлагаем пройти революционный курс по гитаре.
Подарок от PrimaNota.Ru, забирай!