PrimaNota.ru - самый крупный в мире бесплатный архив песенных текстов, аккордов, табулатур и нот


Misc Unsigned Bands - You Slut - Cut And Shut - бас-таба

Регистрация Запомнить меня
Войти через:  Facebook Google Twitter Vk Yandex Mail.ru

Misc Unsigned Bands - You Slut - Cut And Shut - бас-таба

Печатать
Просмотров: 63
Cut & Shut by You Slut! - You Slut!
I am aware that this song is most likely in Drop C tuning, but my bass sounds awful in 
that tuning so I tabbed it
for my 5-string. If this inconveniences you, feel free to ask me to tab it for a four 
string in drop C. I just feel a
lack of motivation to since this song is kind of buried and not sadly not well-known. I 
did the best I could to make
a comfortable, readable tab while incorporating some of the timings.

(0:09)
G|------------|-----------------------------|----------------------------|
D|-----1-2----|-----------------------------|---------------------1-2----|
A|-4--------2-|-----------------------------|-----------------4--------2-|
E|---3--------|-5h6-66-65h6-66-6------------|-5h6-66-65h6-66-6--3--------|
B|------------|-----------------4-4-4-5-5-5-|----------------------------|

G|-----------------------------|------------------------------|
D|-----------------------------|------------------------------|
A|-----------------------------|-------------------6-5-4-3--2-|
E|-5h6-66-65h6-66-6------------|-5h6-66-65h66666--------------|
B|-----------------4-4-4-5-5-5-|------------------------------|

G|-----------------------------|----------------------------|
D|-----------------------------|---------------------1-2----|
A|-----------------------------|-----------------4--------2-|
E|-5h6-66-65h6-66-6------------|-5h6-66-65h6-66-6--3--------|
B|-----------------4-4-4-5-5-5-|----------------------------|

G|-----------------------------|----------------------------|---0---3-4~------|
D|-----------------------------|---------------------1-2----|-2---1-----------|
A|-----------------------------|-----------------4--------2-|-----------------|
E|-5h6-66-65h6-66-6------------|-5h6-66-65h6-66-6--3--------|-----------------|
B|-----------------4-4-4-5-5-5-|----------------------------|-----------------|

(0:38)
G|------------------------|----------------------------|------------------------|
D|------------------------|--------------77---------77-|o--------------1s3-33--o|
A|-888-444----------------|-8-8888888888-----8-8888----|--------------x3s4-44---|
E|---------6-66--2-4-1-11-|----------------------------|o-1-1-1-1-1-1----------o|
B|------------------------|----------------------------|------------------------|

G|----------|------------------------|----------------------------|------------------------|
D|----------|------------------------|--------------77---------77-|o--------------1s3-33--o|
A|-4-4-444--|-888-444----------------|-8-8888888888-----8-8888----|--------------x3s4-44---|
E|----------|---------6-66--2-4-1-11-|----------------------------|o-1-1-1-1-1-1----------o|
B|----------|------------------------|----------------------------|------------------------|

(1:06) (3/4)
G|--------------|-------------|-------------|--------------|---------1---|----------1----|
D|o-------------|-------------|-------------|-------------o|-----------3-|o-----------3-o|
A|------4---4---|-----4-------|-----4---4---|--------------|-1---4-1-----|--1---4-1------|
E|o-------------|---------1h4-|-------------|-----4---4h8-o|-------------|o-------------o|
B|--2-----2-----|-2-----2-----|-2-----2-----|-2-----2------|-------------|---------------|

G|-------------|-------------|-------------|-------------|----------1---|----------1----|
D|-------------|-------------|-------------|-------------|o-----------3-|------------3-o|
A|-----4---4---|-----4-------|-----4---4---|-------------|--1---4-1-----|--1---4-1------|
E|-------------|---------1h4-|-------------|-----4---4h8-|o-------------|--------------o|
B|-2-----2-----|-2-----2-----|-2-----2-----|-2-----2-----|--------------|---------------|

G|-------------|-------------|-------------|-------------|--1h3----------|
D|-------------|-------------|-------------|-3p1---------|o-------1h3---o|
A|---------3h4-|---------4p3-|---------3h4-|-----4p3-3h4-|---------------|
E|-----1h4-----|-----1h4-----|-----1h4-----|-------------|o-------------o|
B|-2h4---------|-2h4---------|-2h4---------|-------------|---------------|

                2/4       3/4
G|-------------|---------|-------------|-------------|--1h3----------|
D|-------------|---------|-------------|-----1h3-1---|o-------1h3---o|
A|-4p3---------|-4p3-----|-4p3---------|-3h4-------4-|---------------|
E|-----4p2-----|-----4p2-|-----4p2-----|-------------|o-------------o|
B|---------4p2-|---------|---------4p2-|-------------|---------------|

(1:43) 4/4
G|-------------|-------x5-x5-|--------------|--------------------|--------------------|
D|-x5-x5-x5-x5-|-x6-x6-------|-x3-x3--3-3-3-|--------------------|--------------------|
A|-------------|-------------|--------------|--------------------|-1-1--1-1-----------|
E|-------------|-------------|--------------|-1-1--1-1--1-1--1-1-|-----------4-4--4-4-|
B|-------------|-------------|--------------|--------------------|--------------------|

G|--------------------|--------------------|-----------------|-----------------|
D|--------------------|-3-3--3-3--3-3--3-3-|-----------------|-----------------|
A|-4-4--4-4--4-4--4-4-|--------------------|---------3h4-----|---------3~------|
E|--------------------|--------------------|-----1h4---------|-----1h4---------|
B|--------------------|--------------------|-2h4-------------|-2h4-------------|

G|-----------------|-----------------|-------------|-------------|-------------|
D|-----------------|-----------------|-------------|-------------|-------------|
A|-4p3-------------|-4p3-------------|---------3h4-|---------3h4-|-----------4-|
E|-----4p1---------|-----4-2~--------|-----1h4-----|-----1h4-----|-----1h4-4---|
B|---------4p2-----|-----------------|-2h4---------|-2h4---------|-2h4---------|

G|-----------------------|-----------------------|-------------|
D|-----------------------|-----------------------|-------------|
A|---------3-4p3---------|----------Rest---------|-4p3---------|
E|-----1h4-------4p1-----|-----------------------|-----4p1-----|
B|-2h4---------------4p2-|-----------------------|---------4p2-|

(2:14)
The Awesome Part, 3/4
G|-------------|---------------|----------1----|-------------|-------------|
D|-------------|o---------3---o|o-----------3-o|-------------|-------------|
A|-------------|------1-----4--|--1---4-1------|-----4---4---|-----4-------|
E|-------------|o-2-----2-----o|o-------------o|-------------|---------1h4-|
B|-2~----------|---------------|---------------|-2-----2-----|-2-----2-----|

G|-------------|-------------|---------------|----------1----|------------|
D|-------------|-------------|o---------3---o|o-----------3-o|------------|
A|-----4---4---|-------------|------1-----4--|--1---4-1------|-Rest for 9-|
E|-------------|-----4---4h8-|o-2-----2-----o|o-------------o|----beats---|
B|-2-----2-----|-2-----2-----|---------------|---------------|------------|

G|-----------------|-----------------|---------1-1-----|---------1-1-----|
D|---------3-3-----|---------3-3-----|-------------3-3-|-------------3-3-|
A|-------1-----4-4-|-----1-1-----4-4-|-x1~---4---------|-1-1-4-4---------|
E|-x2~-------------|-2-2-------------|-----------------|-----------------|
B|-----------------|-----------------|-----------------|-----------------|

G|------------|---------------|-----------------|-----------------|
D|------------|---------------|---------3-3-----|---------3-3-----|
A|-Rest for 8-|-4~------------|-------1-----4-4-|-----1-1-----4-4-|
E|----beats---|-----------2h4-|-x2~-------------|-2-2-------------|
B|------------|---------------|-----------------|-----------------|

G|---------1-1-----|---------1-1-----|
D|-------------3-3-|-------------3-3-|
A|-x1~---4---------|-1-1-4-4---------|
E|-----------------|-----------------|
B|-----------------|-----------------|

(2:49)
Just because the drums here make it sound way more confusing than it actually is:
   1 + 2 + 3 + 4 +   1 + 2 + 3 + 4 +   1 + 2 + 3 + 4 +   1 + 2 + 3 + 4 +
G|-----------------|-----------------|-----------------|-----------------|
D|-----------------|-----------------|-----------------|-----------------|
A|-----------------|-----------------|-----------------|-----------------|
E|-----------------|-----------------|-----------------|-----------------|
B|-2---------------|-2---------------|-2---------------|-2---------------|

   1 + 2 + 3 + 4 +   1 + 2 + 3 + 4 +   1 + 2 + 3 + 4 +   1 + 2 + 3 + 4 +
G|-----------------|-----------------|-----------------|-----------------|
D|-----------------|-----------------|-----------------|-----------------|
A|-----------------|-----------------|-----1-----------|-----1-----------|
E|-----2-----------|-----2-----------|-----------------|-----------------|
B|-----------------|-----------------|-----------------|-----------------|

G|-----------------|-----------------|-----------------|-----------------|
D|-----------------|-----------------|-----------------|-----------------|
A|---4-------------|---4-------------|---4-------------|-1---------------|
E|-----------1-4-1-|-----------1-4-1-|-----------1-4-1-|---4-1---1-------|
B|-2---2---2-------|-2---2---2-------|-2---2---2-------|-------4---4-2-4-|

G|-----------------|-----------------|-----------------|-----------------|
D|-----------------|-----------------|-----------------|-----------------|
A|-----------------|-----------------|-1~--------------|-----------------|
E|-2~--------------|-----------------|-----------------|-----------------|
B|-----------------|-----------------|-----------------|-----------------|

G|------------------- - -  -  -  -   -   -
D|-------------------- - -  -  -  -   -   -
A|------------------- - -  -  -  -   -   -
E|-------------------- - -  -  -  -   -   -
B|-2~---------------- - -  -  -  -   -   -

Thank you, and please rate!
pefbass@gmail.com
Добавлено: 01.07.2013
Другие материалы по этой песне:
  • Аккорды и текст

Страница создана 01.07.2013
http://primanota.ru/misc-unsigned-bands/you-slut-cut-and-shut-chords.htm
Привет, Гость.
Предлагаем пройти революционный курс по гитаре.
Подарок от PrimaNota.Ru, забирай!