PrimaNota.ru - самый крупный в мире бесплатный архив песенных текстов, аккордов, табулатур и нот


Misc Unsigned Bands - Whitefield - Larry Lasalle - бас-таба

Регистрация Запомнить меня
Войти через:  Facebook Google Twitter Vk Yandex Mail.ru

Misc Unsigned Bands - Whitefield - Larry Lasalle - бас-таба

Печатать
Просмотров: 65
Whitefield - Larry LaSalle (bass tab)
Song written and performed by Whitefield - Ciaran Smith: vocals and guitar, Adam 
whitby: bass, Kirk Heathfield: drums (c)

Tuning - D,A,D,G

Intro x2 (after guitar part)
G|-------------------|  |---------------------------------|
D|-------------------|x3|---------------------------------|
A|-------------------|  |----------------6-6-6-6-6-6-6-6--|
D|0-5-0-0-3-0-3-3-5--|  |1-1-1-1-1-1-1-1------------------|

Verse x4
G|--------------------------------------|
D|--------------------------------------|
A|--3---3-5--3---3-5---3---3-5----------|
D|0---0--------0-----0---0-----0-5-4-3--|

G|--------------------------------------|
D|--------------------------------------|
A|--3---3-5--3---3-5---3---3-5---3-4-5--|
D|0---0--------0-----0---0-----0--------|

Chorus x2
G|-------------------|  |---------------------------------|
D|-------------------|x3|---------------------------------|
A|-------------------|  |----------------6-6-6-6-6-6-6-6--|
D|0-5-0-0-3-0-3-3-5--|  |1-1-1-1-1-1-1-1------------------|

Verse x4
G|--------------------------------------|
D|--------------------------------------|
A|--3---3-5--3---3-5---3---3-5----------|
D|0---0--------0-----0---0-----0-5-4-3--|

G|--------------------------------------|
D|--------------------------------------|
A|--3---3-5--3---3-5---3---3-5---3-4-5--|
D|0---0--------0-----0---0-----0--------|

Bridge x8
G|-----------------------|
D|-----------------------|
A|--5-3-2---0-2-3-2-0-2--|
D|0-------3--------------|

Chorus x2
G|-------------------|  |---------------------------------|
D|-------------------|x3|---------------------------------|
A|-------------------|  |----------------6-6-6-6-6-6-6-6--|
D|0-5-0-0-3-0-3-3-5--|  |1-1-1-1-1-1-1-1------------------|

Outro x4
G|-----------------|
D|-----------------|
A|--5-3-5-6-5-3-5--|
D|0----------------|
Добавлено: 13.07.2013
Другие материалы по этой песне:
  • Аккорды и текст

Страница создана 13.07.2013
http://primanota.ru/misc-unsigned-bands/whitefield-larry-lasalle-chords.htm
Привет, Гость.
Предлагаем пройти революционный курс по гитаре.
Подарок от PrimaNota.Ru, забирай!