PrimaNota.ru - самый крупный в мире бесплатный архив песенных текстов, аккордов, табулатур и нот


Misc Unsigned Bands - We As Human - Dead Man - таба, видео

Регистрация Запомнить меня
Войти через:  Facebook Google Twitter Vk Yandex Mail.ru

Misc Unsigned Bands - We As Human - Dead Man - таба, видео

Печатать
Просмотров: 55
Dead Man
by We As Human

This is how I would play the song with one guitar. There are two different guitars in 
actual song but I kind of combined them. Yes, I know it's not perfect. This is the first 
I've ever tabbed out a song. I'll make improvements as necessary!

Intro:

e|------------------------------------------|
B|------------------------------------------|
G|------------------------------------------|
D|-------11-11-11-------11-11-11-11-10-8-10-|
A|------------------------------------------|
E|-8-8-8----------8-8-8---------------------| x3

e|------------------------------------------|
B|------------------------------------------|
G|------------------------------------------|
D|-------11-11-11-------11~~~~~~~~~~~~~~~~~~|
A|------------------------------------------|
E|-8-8-8----------8-8-8---------------------|

e|------------------------------------------|
B|------------------------------------------|
G|------------------------------------------|
D|------------------------------------------|
A|-10-10-10-10-10-10-8-8-11-----------------|
E|-8--8--8--8--8--8 \6-6/9------------------|

Verse:
(Slowly)

e|-16-----------------16--------------------|
B|----14------15---------14------12--10-----|
G|------------------------------------------|
D|------------------------------------------|
A|------------------------------------------|
E|------------------------------------------|

e|-16---------------------------------------|
B|----14------11----9-----------------------|
G|------------------------------------------|
D|------------------------------------------|
A|------------------------------------------|
E|------------------------------------------|

Chorus:
Simple Strum Pattern

e|------------------------------------------|
B|------------------------------------------|
G|------------------------------------------|
D|------------------------------------------|
A|-10-13-3-6--------------------------------|
E|-8--11-1-4--------------------------------| x2

Verse:
(Slowly)

e|-16-----------------16--------------------|
B|----14------15---------14------12--10-----|
G|------------------------------------------|
D|------------------------------------------|
A|------------------------------------------|
E|------------------------------------------|

e|-16---------------------------------------|
B|----14------11----9-----------------------|
G|------------------------------------------|
D|------------------------------------------|
A|------------------------------------------|
E|------------------------------------------|

Chorus:
Simple Strum Pattern

e|------------------------------------------|
B|------------------------------------------|
G|------------------------------------------|
D|------------------------------------------|
A|-10-13-3-6--------------------------------|
E|-8--11-1-4--------------------------------| x2

Bridge:

e|------------------------------------------|
B|------------------------------------------|
G|------------------------------------------|
D|------------------------------------------|
A|-10~~~~~-13-13-13-------------------------|
E|-8~~~~~~----------12-12-------------------|


e|------------------------------------------|
B|------------------------------------------|
G|------------------------------------------|
D|------------------------------------------|
A|-10~~~~~-13-13-13-------------------------|
E|-8~~~~~~----------10-10-------------------| x2

Interlude:

Not quite sure yet... Starts at 2:25 and ends at 2:46

Chorus:
Simple Strum Pattern

e|------------------------------------------|
B|------------------------------------------|
G|------------------------------------------|
D|------------------------------------------|
A|-10-13-3-6--------------------------------|
E|-8--11-1-4--------------------------------| x2

Bridge:
Alternated Strumming

e|------------------------------------------|
B|------------------------------------------|
G|------------------------------------------|
D|------------------------------------------|
A|-10-10-10-10-10-10-10-10-10-10-/13-13-----|
E|-8--8--8--8--8--8--8--8--8--8--/11-11-----| x2

Thanks!
Austin.
Добавлено: 27.10.2013
Другие материалы по этой песне:
  • Аккорды и текст

Страница создана 27.10.2013
http://primanota.ru/misc-unsigned-bands/we-as-human-dead-man-chords.htm
Привет, Гость.
Предлагаем пройти революционный курс по гитаре.
Подарок от PrimaNota.Ru, забирай!