PrimaNota.ru - самый крупный в мире бесплатный архив песенных текстов, аккордов, табулатур и нот


Misc Unsigned Bands - We Are The Ocean - Nothing Good Has Happened Yet - таба, видео

Регистрация Запомнить меня
Войти через:  Facebook Google Twitter Vk Yandex Mail.ru

Misc Unsigned Bands - We Are The Ocean - Nothing Good Has Happened Yet - таба, видео

Печатать
Просмотров: 49
-------------------------------------------------------------------------------
        Nothing Good Has Happened Yet - We Are The Ocean
-------------------------------------------------------------------------------
Tabbed by: Austin Platt
Email: austinplatt@gmail.com

Tuning: Drop D i would guess but they might play in standard i don't know.

INTRO

e|------5-----------------5-----------------5-----------------5--------------|
B|--3-------3---3-----3-------3---3-----3-------3---3-----3-------3---3------|
G|4---4-------4-----2---2-------2-----0---0-------0-----0---0-------0--------|
D|---------------------------------------------------------------------------|
A|---------------------------------------------------------------------------|
D|---------------------------------------------------------------------------|
X2 but don't play the last bit second time


VERSE
Guitar 1
e|-----------------------------------------------------------------------------|
B|-----------------------------------------------------------------------------|
G|4---4--4-4-4--6---6--6-6-6---5--7--7-7-7-------------------------------------|
D|4---4--4-4-4--6---6--6-6-6---5--7--7-7-7---2---2--2-2-2-----------------2----|
A|2---2--2-2-2--4---4--4-4-4---5--5--5-5-5---2---2--2-2-2---then end on --2----|
D|-------------------------------------------2---2--2-2-2-----------------2----|

Guitar 2 plays this riff over the top
e|--------2-0----5----5-5-3-3-2-------|
B|----3-3-----3-----------------------|
G|4-4---------------------------------|
D|------------------------------------|
A|------------------------------------|
D|------------------------------------|

CHORUS
Guitar 1
e|-----------------------------------------------------------------------------|
B|-----------------------------------------------------------------------------|
G|-----------------------------------------------------------------------------|
D|9-9---9-9-------7-7---7-7-------5-5--5-5----5-5--5-5----5-5--5-5----5-5--5-5-|
A|9-9---9-9-------7-7---7-7-------5-5--5-5----5-5--5-5----5-5--5-5----5-5--5-5-|
D|9-9---9-9-------7-7---7-7-------5-5--5-5----5-5--5-5----5-5--5-5----5-5--5-5-|

Guitar 2 - this is pretty quiet so it might not be perfect
e|----2-0--------------2-0------------------------------------------------------|
B|--3----------------3----------------------------------------------------------|
G|4----------------2--------------14-14-14-14-----------------------11-11-11-11-|
D|-------------------------------------------- x8ish ---------------------------|
A|--------------------------------12-12-12-12-----------------------9--9--9--9--|
D|------------------------------------------------------------------------------|

End Chorus Thing
e|---------------------------------------------------------------------------|
B|--3----3----3--x2----------------------------------------------------------|
G|--4----2----0--------------------------------------------------------------|
D|---------------------------------------------------------------------------|
A|---------------------------------------------------------------------------|
D|---------------------------------------------------------------------------|


Then Verse again but guitar two plays these
e|---------------------------------------------------------------------------|
B|---------------------------------------------------------------------------|
G|--4------------6--------------7------------9-------------------------------|
D|---------------------------------------------------------------------------|
A|--2------------4--------------5------------7-------------------------------|
D|---------------------------------------------------------------------------|


Then Chorus but the end chorus is

End Chorus Thing
e|--------5----------5----------5--------------------------------------------|
B|----3----------3----------3------x2----------------------------------------|
G|--4---4------2---2------0---0----------------------------------------------|
D|---------------------------------------------------------------------------|
A|---------------------------------------------------------------------------|
D|---------------------------------------------------------------------------|

Then Verse


Bridge

Guitar One just does this over and over
e|---------------------------------------------------------------------------|
B|---------------------------------------------------------------------------|
G|-----4-----------------------------4---------------------------------------|
D|---4-------------------------------5---------------------------------------|
A|-2-------------------------------5-----------------------------------------|
D|-------------------------------5-------------------------------------------|


Guitar Two does something like this, if you watch the video it looks like he does
some kind of tapping or something - so this is what i reckon
    R R R L  R L R        R R R L  R L R
e|------------------------------------------------------------------------------|
B|------------------------------------------------------------------------------|
G|--6/7\6p2--4p2-4--------7/6\7p2--9p2-11---------------------------------------|
D|-----------------0------------------------------------------------------------|
A|------------------------------------------------------------------------------|
D|------------------------------------------------------------------------------|

Then the first verse riff on its own and then end by repeating verse 1

safe


| /  slide up
| \  slide down
| h  hammer-on
| p  pull-off
| ~  vibrato
| +  harmonic
| x  Mute note
===============================================================================
Добавлено: 29.11.2013
Другие материалы по этой песне:
  • Аккорды и текст

Страница создана 29.11.2013
http://primanota.ru/misc-unsigned-bands/we-are-the-ocean-nothing-good-has-happened-yet-chords.htm
Привет, Гость.
Предлагаем пройти революционный курс по гитаре.
Подарок от PrimaNota.Ru, забирай!