PrimaNota.ru - самый крупный в мире бесплатный архив песенных текстов, аккордов, табулатур и нот


Misc Unsigned Bands - Vincent Bowsers - Correction Thoery - таба

Регистрация Запомнить меня
Войти через:  Facebook Google Twitter Vk Yandex Mail.ru

Misc Unsigned Bands - Vincent Bowsers - Correction Thoery - таба

Печатать
Просмотров: 44

Correction Theory  By 
Vincent Bowser
------------------------------------------------------------------------\
------------------------------------------------------------------------\
------------------------------------------------------------------------\X2
------2------2------3------3-------2------2------3-------3--------------\ 
---2-------2------2-----2-------2------2-------2------2-----------------\
-0------0-------0-----0------0-------0-------0------0-------------------\

------------------------------------------------------------------------\
------------------------------------------------------------------------\
------------------------------------------------------------------------\
2------3--2------5--3-5-7-----------------------------------------------\
2------3--2------5--3-5-7---X4------------------------------------------\
000000--000000000000----------------------------------------------------\

------------------------------------------------------------------------\
------------------------------------------------------------------------\
-----------------------------------2~~~~~~------------------------------\
----------765----------543----------------------------------------------\
---0567---------345-----------------------------------------------------\
---------------7---------------5----------------------------------------\

------------------------------------------------------------------------\
------------------------------------------------------------------------\
------------------------------------------------------------------------\X2
------------------------------------------------------------------------\
---------Break down----------32----------5h4----------3/2---3/12--------\
543/0--------------------------00000----00000-------00000---------------\

Chorus
x-----------------------------x/x-------------------------x/x-----------\
1-----------------------------1/4-------------------------4/1-----------\
2-----------------------------2/5-------------------------5/2-----------\
2-----------------------------2/5-------------------------5/2-----------\
0-----------------------------0/0-------------------------0/0-----------\
0---xxxxxxxxxxxx--------0/0-----xxxxxxxxxxxx--0/0-----------------------\

------------------------------------------------------------------------\
------------------------------------------------------------------------\
---------------------------------------------------12-11-10-12-11-10----\
--------------------------------987--987--987--987----------------------\
-----987--987--987--987-------------------------------------------------\
------------------------------------------------------------------------\




----------------------12~~~----------------------------------------------\
-12-11-10-12-11-10-------12---14--12---------12--14-12------12--14-17----\
-----------------------------------------15----------------15------------\
-------------------------------------------------------------------------\
-------------------------------------------------------------------------\
-------------------------------------------------------------------------\

-------------------------------------------------------------------------\
-------------------------------------------------------------------------\
--------------------------5----------------------------------------------\
7----7-----9-9---7--5--3--3--4-------------------------------------------\
5----5-----7-7---5--3--------2-------------------------------------------\
-000--000----0---0--------------320  END---------------------------------\
Lyrics

Can you help me feel inside my soul
Can you help the rain so cold
Does my hatred not reach you?
Can
Добавлено: 03.10.2013
Другие материалы по этой песне:
  • Аккорды и текст

Страница создана 03.10.2013
http://primanota.ru/misc-unsigned-bands/vincent-bowsers-correction-thoery-chords.htm
Привет, Гость.
Предлагаем пройти революционный курс по гитаре.
Подарок от PrimaNota.Ru, забирай!