PrimaNota.ru - самый крупный в мире бесплатный архив песенных текстов, аккордов, табулатур и нот


Misc Unsigned Bands - Vierra - Dengarkan Curhatku - таба

Регистрация Запомнить меня
Войти через:  Facebook Google Twitter Vk Yandex Mail.ru

Misc Unsigned Bands - Vierra - Dengarkan Curhatku - таба

Печатать
Просмотров: 46
-------------------------------------------------------------------------------
                             Dengarkan Curhatku - Vierra
-------------------------------------------------------------------------------
Tabbed by: eldo_valentinez
Email: eldo_valentinez@yahoo.co.nz

Tuning: tune 1/2 step down

not 100% accurate but it really close

Intro 00:00
eb|---------------------------------------------------------------------------|
Bb|---------------------------------------------------------------------------|
Gb|---------------------------------------------------------------------------|
Db|---2~~---------------------------------------------------------------------|
Ab|---2~~let ring-------------------------------------------------------------|
Eb|---0~~---------------------------------------------------------------------|

Verse 00:06
eb|---------------------------------------------------------------------------|
Bb|---------------------------------------------------------------------------|
Gb|---------------------------------------------------------------------------|
Db|---2-2---2-2--2/------7-7---7-7--7\---2------------------------------------|
Ab|---2-2---2-2--2/------7-7---7-7--7\---2------4X----------------------------|
Eb|---0-0---0-0--0/------5-5---5-5--5\---0------------------------------------|
      * *   * *          * *   * *

Pre Chorus 00:27
eb|---------------------------------------------------------------------------|
Bb|---------------------------------------------------------------------------|
Gb|---------------------------------------------------------------------------|
Db|--7------------------------------------------------------------------------|
Ab|--7---16X------------------------------------------------------------------|
Eb|--5------------------------------------------------------------------------|
     *

Chorus00:30                                                                                
eb|-------------------------------------------------------------|
Bb|------------------------------------------------------7p5----|
Gb|-------------------------6-------4-------------- 5---------4-|
Db|--2--------7-------------6-------4-------7----*7--*7---------|
Ab|--2--------7-------------4-------2-------7-------------------|
Eb|--0--------5-----------------------------5-------------------|

Solo 01:37 tremolo picking w/ delay
eb|-----------------------------12----16----14---------------------12---------|
Bb|------------12----9----10----------------------12----9---10----------------|
Gb|---11--13------------------------------------------------------------------|
Db|---------------------------------------------------------------------------|
Ab|---------------------------------------------------------------------------|
Eb|---------------------------------------------------------------------------|

(Break Down) 01:48

2nd Verse
eb|------------------------------------------------------------5p4~~-----|
Bb|--------------------------------------------------5----7p5------------|
Gb|-------------------------6-------4-------------*5--*5-----------------|
Db|--2--------7-------------6-------4-------7----------------------------|
Ab|--2--------7-------------4-------2-------7----------------------------|
Eb|--0--------5-----------------------------5----------------------------|

Outro 02:22
eb|---------------------------------------------------------------------------|
Bb|---------------------------------------------------------------------------|
Gb|---------------------------------------------------------------------------|
Db|---2-2---2-2--2~~----------------------------------------------------------|
Ab|---2-2---2-2--2~~--3X------------------------------------------------------|
Eb|---0-0---0-0--0~~----------------------------------------------------------|

any correction or mistake please mail me

enjoy

| /  slide up
| \  slide down
| h  hammer-on
| p  pull-off
| ~  vibrato
| +  harmonic
| *  Mute note
===============================================================================
Добавлено: 23.08.2013
Другие материалы по этой песне:
  • Аккорды и текст

Страница создана 23.08.2013
http://primanota.ru/misc-unsigned-bands/vierra-dengarkan-curhatku-chords.htm
Привет, Гость.
Предлагаем пройти революционный курс по гитаре.
Подарок от PrimaNota.Ru, забирай!