PrimaNota.ru - самый крупный в мире бесплатный архив песенных текстов, аккордов, табулатур и нот


Misc Unsigned Bands - Vault 4 - About - таба, видео

Регистрация Запомнить меня
Войти через:  Facebook Google Twitter Vk Yandex Mail.ru

Misc Unsigned Bands - Vault 4 - About - таба, видео

Печатать
Просмотров: 60
Intro

e----2------2------------------3------3-----2------2---|
B--3--3---3--3----2------2-----3------3---3--3---3--3--|
G-2-2--2-2--2-2--2---2--2----------------2-2--2-2-2--2-|
D--------------2-2--2-2-2--2---------------------------|
A----------------------------2--2---2--2---------------|
E---------------------------3-3--3-3-3--3--------------|

e-00000000-33333333----2-----22-|
B-22222222-33333333--3--3---3-3-|
G-00000000-00000000-2-2--2-2--2-|
D-33333333-00000000-----------0-|
A-44444444-22222222-------------|
E----------33333333-------------|

Verse

e-3-22-222-3-22-222-0-00-000-0-00-000-5-33-333-5-33-333-|
B-0-33-333-0-33-333-3-22-222-3-22-222-0-00-000-0-00-000-|
G-2-22-222-2-22-222-2-22-222-2-22-222-0-00-000-0-00-000-|
D-------------------2-22-222-2-22-222-0-00-000-0-00-000-|
A-------------------------------------2-22-222-2-22-222-|
E-------------------------------------3-33-333-3-33-333-|

Chorus

e-0-000-000-000-00-3-333-333-333-33-|
B-2-222-222-222-22-3-333-333-333-33-|
G-0-000-000-000-00-0-000-000-000-00-|
D-3-333-333-333-33-0-000-000-000-00-|
A-4-444-444-444-44-2-222-222-222-22-|
E------------------3-333-333-333-33-|

Solo

e---2---2---2---2-------------------3---3---3---3--|
B--3-3-3-3-3-3-3-3--2---2---2---2---3---3---3---3--|
G-2---2---2---2----2-2-2-2-2-2-2-2-----------------|
D-----------------2---2---2---2--------------------|
A----------------------------------2-2-2-2-2-2-2-2-|
E---------------------------------3---3---3---3----|

0utro

e----2------2------------------3------3-----2------2---|
B--3--3---3--3----2------2-----3------3---3--3---3--3--|
G-2-2--2-2--2-2--2---2--2----------------2-2--2-2-2--2-|
D--------------2-2--2-2-2--2---------------------------|
A----------------------------2--2---2--2---------------|
E---------------------------3-3--3-3-3--3--------------|

e-00000000-33333333----2------------2-|
B-22222222-33333333--3--3----3-----3--|
G-00000000-00000000-2-2--2-2---2--2---|
D-33333333-00000000--------------0----|
A-44444444-22222222-------------------|
E----------33333333-------------------|

0rder

Intro 1x
Verse 1x
Chorus 1x
Verse 1x
Chorus 1x
Solo 1x
Chorus 1x
Verse 1x
Outro 1x
Добавлено: 15.12.2013
Другие материалы по этой песне:
  • Аккорды и текст

Страница создана 15.12.2013
http://primanota.ru/misc-unsigned-bands/vault-4-about-chords.htm
Привет, Гость.
Предлагаем пройти революционный курс по гитаре.
Подарок от PrimaNota.Ru, забирай!