PrimaNota.ru - самый крупный в мире бесплатный архив песенных текстов, аккордов, табулатур и нот


Misc Unsigned Bands - Tulipa - Efemera - аккорды и текст

Регистрация Запомнить меня
Войти через:  Facebook Google Twitter Vk Yandex Mail.ru

Misc Unsigned Bands - Tulipa - Efemera - аккорды и текст

Печатать
Просмотров: 64
Tulipa - Efemera
Misc Unsigned Bands
Tulipa - Efemera



Intro (x4)

      Bb      Gbm7
e|---6--6-----6--6---|
B|---6--6-----7--7---|
G|---7--7----7--7----|  
D|--8--8--8--8--8----|
A|--8--8--8----------|
E|-------------------|


 Bb                Gbm7
Vou ficar mais um pouquinho
     Bb                     
Para ver se acontece alguma 

     Cm                   Gm
e|---3--3-----3--3--3-----3--3----|
B|---5--4-----4--4--4-----3--3----|
G|---5--5-----5--5--5-----3--3----|  
D|--5--5--5--5--5--5--5--5--5--5--|
A|--3--3--3--3--3--3--3--5--5--5--|
E|--------------------------------|
   coisa nessa tarde de domingo
           Bb                  Gbm7
Congelo o tempo preu ficar devagarinho
                                    Cm
com as coisas que eu gosto e que eu sei que são efêmeras
  Bb
e que passam perecíveis
e acabam, se despedem, mas eu nunca me esqueço

 Bb                  Gm
Vou ficar mais um pouquinho
      Bb                      Cm                 Gm
Para ver se eu aprendo alguma coisa nessa parte do caminho
           Bb
Martelo o tempo preu ficar mais pianinho
                                  Cm
com as coisas que eu gosto e que nunca são efêmeras
Bb
e que estão despetaladas, acabadas
Sempre pedem um tipo de recomeço


 Trumpet Solo

      Bb           Gbm7           Bb            Gbm7
E|-----------------------------|---------------------------------------|
B|-----------------------------|---------------------------------------|  
G|-----------------------------|---------------------------------------|
D|-------------0-3-5-3---------|-------------0-3-5-3-------------------|
A|1-1-1--1-1--3-------6-5-3-3-5|1-1-1--1-1--3-------6-5-3-3-5-(3/5-x4)-|
E|-------------------6---6-3-1-|-------------------6---6-3-1-----------|
                                      
 Bb                                       
Vou ficar mais um pouquinho, eu vou


Bb                   Gm
Vou ficar mais um pouquinho
                             Cm                   Gm
Para ver se acontece alguma coisa nessa tarde de domingo
         Bb
Congelo o tempo preu ficar devagarinho
                                     Cm
com as coisas que eu gosto e que eu sei que são efêmeras
 Bb
e que passam perecíveis
e acabam, se despedem, mas eu nunca me esqueço

            Bb
Por isso eu vou ficar mais um pouquinho
                               Cm                   Gm
Para ver se eu aprendo alguma coisa nessa parte do caminho
          Bb
Martelo o tempo preu ficar mais pianinho
        Bb                      Cm
com as coisas que eu gosto e que nunca são efêmeras
Bb
e que estão despetaladas, acabadas
Sempre pedem um tipo de recomeço

Bb
Vou ficar mais um pouquinho
                            Cm                     Gm
Para ver se acontece alguma coisa nessa tarde de domingo
Bb
Vou ficar mais um pouquinho
                              Cm                    Gm
Para ver se eu aprendo alguma coisa nessa parte do caminho

If listening to this song makes your day, the playing it would make your day even better.
Here's a link to the song :http://www.youtube.com/watch?v=Bo8Gg6dGIIQ
If you have any questions, just e-mail me at crimsonj545@aol.com
Добавлено: 19.07.2013
Другие материалы по этой песне:
  • Аккорды и текст

Страница создана 19.07.2013
http://primanota.ru/misc-unsigned-bands/tulipa-efemera-chords.htm
Привет, Гость.
Предлагаем пройти революционный курс по гитаре.
Подарок от PrimaNota.Ru, забирай!