PrimaNota.ru - самый крупный в мире бесплатный архив песенных текстов, аккордов, табулатур и нот


Misc Unsigned Bands - Tree Adams - Californication Theme - бас-таба

Регистрация Запомнить меня
Войти через:  Facebook Google Twitter Vk Yandex Mail.ru

Misc Unsigned Bands - Tree Adams - Californication Theme - бас-таба

Печатать
Просмотров: 66
TREE ADAMS
Californication theme

tuning: Standard (E,A,D,G)

this is the bass tab of "Californication" episode intro. it is a short song, but 
it is very nice... enjoy

Intro
G|-----------------------|    |-------------------------|
D|-----11-11-11-11-11/0--|    |-----11-11-11-11-11-9----|
A|--44-------------------| x2 |--44------------------11-|
E|-----------------------|    |-------------------------|


G|----------------------------------------------------------------------|
D|-----------------------------------6-----------7/-12-14-12-11-11-11/0-|
A|-7-7-7---7-7-7-7-7--6-6-6-6--9-7-9---7-5-5-5-5------------------------|
E|-------7--------------------------------------------------------------|


G|---------------------------------------------------------------|
D|---/11-9----/11-11-11-11-9-------------------------------------|
A|---------11----------------11--77777777--22222222--44424-2-3-4-|
E|-9-------------------------------------------------------------|

G|------------------------------------------------------------------|
D|------------------------------------------------------------------|
A|--/4242--22---------------22222--/14-14-13-13-12-12-12-12/222222--|
E|-------4----44-000-00000------------------------------------------|

G|-----------------------|
D|-----------------------|
A|--4-4--4--4--4-4--4-4b-|
E|-----------------------|
Добавлено: 13.10.2013
Другие материалы по этой песне:
  • Аккорды и текст

Страница создана 13.10.2013
http://primanota.ru/misc-unsigned-bands/tree-adams-californication-theme-chords.htm
Привет, Гость.
Предлагаем пройти революционный курс по гитаре.
Подарок от PrimaNota.Ru, забирай!