PrimaNota.ru - самый крупный в мире бесплатный архив песенных текстов, аккордов, табулатур и нот


Misc Unsigned Bands - Trash Talk - Kill The Snakes - таба, видео

Регистрация Запомнить меня
Войти через:  Facebook Google Twitter Vk Yandex Mail.ru

Misc Unsigned Bands - Trash Talk - Kill The Snakes - таба, видео

Печатать
Просмотров: 45
plagues ep
malfunction records
www.trashtalkhc.com
www.myspace.com/trashtalkfu
d standard tuning


------------------------------------------------|
------------------------------------------------|
------------------------------------------------|
-5~--5-5-5--------------------------------------|
-5~--5-5-5--------------------------------------|
-3~--3-3-3--------------------------------------|
     . . .

------------------------------------------------|
------------------------------------------------|
-2-2-2-2-6-6-6-6-3-3-3-3--5-3--x6---------------|
-2-2-2-2-6-6-6-6-3-3-3-3--5-3-------------------|
-0-0-0-0-4-4-4-4-1-1-1-1--3-1-------------------|
------------------------------------------------|


---------------------------------------------------------------|
---------------------------------------------------------------|
-----------------8-8-8-8-8-8-8-8-----------------8-7-5-3-------|
-7-7-7-7-7-7-7-7-8-8-8-8-8-8-8-8-7-7-7-7-7-7-7-7-8-7-5-3-------|
-7-7-7-7-7-7-7-7-6-6-6-6-6-6-6-6-7-7-7-7-7-7-7-7-6-5-3-1-------|
-5-5-5-5-5-5-5-5-----------------5-5-5-5-5-5-5-5---------------|


---------------------------------------------------------------|
---------------------------------------------------------------|
-----------------8-8-8-8-8-8-8-8-----------------8~------------|
-7-7-7-7-7-7-7-7-8-8-8-8-8-8-8-8-7-7-7-7-7-7-7-7-8~------------|
-7-7-7-7-7-7-7-7-6-6-6-6-6-6-6-6-7-7-7-7-7-7-7-7-6~------------|
-5-5-5-5-5-5-5-5-----------------5-5-5-5-5-5-5-5---------------|


------------------------------------------------|
------------------------------------------------|
-2-2-2-2-6-6-6-6-3-3-3-3--5-3--x4---------------|
-2-2-2-2-6-6-6-6-3-3-3-3--5-3-------------------|
-0-0-0-0-4-4-4-4-1-1-1-1--3-1-------------------|
------------------------------------------------|

---------------------------------------------------------------|
---------------------------------------------------------------|
-----------------8-8-8-8-8-8-8-8-----------------8-7-5-3-------|
-7-7-7-7-7-7-7-7-8-8-8-8-8-8-8-8-7-7-7-7-7-7-7-7-8-7-5-3-------|
-7-7-7-7-7-7-7-7-6-6-6-6-6-6-6-6-7-7-7-7-7-7-7-7-6-5-3-1-------|
-5-5-5-5-5-5-5-5-----------------5-5-5-5-5-5-5-5---------------|


---------------------------------------------------------------|
---------------------------------------------------------------|
-----------------8-8-8-8-8-8-8-8-----------------9~------------|
-7-7-7-7-7-7-7-7-8-8-8-8-8-8-8-8-7-7-7-7-7-7-7-7-9~------------|
-7-7-7-7-7-7-7-7-6-6-6-6-6-6-6-6-7-7-7-7-7-7-7-7-7~------------|
-5-5-5-5-5-5-5-5-----------------5-5-5-5-5-5-5-5---------------|

---------------------------------------------------------------|
---------------------------------------------------------------|
-----------------8-8-8-8-8-8-8-8-----------------8-7-5-3-------|
-7-7-7-7-7-7-7-7-8-8-8-8-8-8-8-8-7-7-7-7-7-7-7-7-8-7-5-3-------|
-7-7-7-7-7-7-7-7-6-6-6-6-6-6-6-6-7-7-7-7-7-7-7-7-6-5-3-1-------|
-5-5-5-5-5-5-5-5-----------------5-5-5-5-5-5-5-5---------------|


------------------------------------------------|
------------------------------------------------|
-10-9-------------------------------------------|
-10-9-2-----------------------------------------|
-8--7-2-----------------------------------------|
------0-----------------------------------------|
play open d chord until end of song


lead guitar
------------------------------------------------------------------------|
------------------------------------------------------------------------|
-10-9~--7~--10-12-10-9~--7~--5-7-5~--9~--7~--10-12-10-9~--7~--5-7-5--9~-|
------------------------------------------------------------------------|
------------------------------------------------------------------------|
------------------------------------------------------------------------|
Добавлено: 17.09.2013
Другие материалы по этой песне:
  • Аккорды и текст

Страница создана 17.09.2013
http://primanota.ru/misc-unsigned-bands/trash-talk-kill-the-snakes-chords.htm
Привет, Гость.
Предлагаем пройти революционный курс по гитаре.
Подарок от PrimaNota.Ru, забирай!