PrimaNota.ru - самый крупный в мире бесплатный архив песенных текстов, аккордов, табулатур и нот


Misc Unsigned Bands - Transcends - Departure - таба

Регистрация Запомнить меня
Войти через:  Facebook Google Twitter Vk Yandex Mail.ru

Misc Unsigned Bands - Transcends - Departure - таба

Печатать
Просмотров: 48
Departure by Transcends
Tabbed by: Luke Hoffman
Song Originally by Transcends.
Drop D Tuning.
Guitar 1:INTRO 0:01-0:16
E--------------------------------------|---------------------------------|
B-----0-2-----------0--2---------------|--------0----------0-----0-------|
G---2----2--------2------2---------2---|------2---2------2-----2---2-1---|
D--2-------2--0-2----------2---0-2-----|--0-2-------2--0-----0--------2--|
A--------------------------------------|---------------------------------|
E--------------------------------------|---------------------------------|

E------------------------------------------------------------|
B-------2-------2--------------------------------------------|
G-----2-------2---2---2--(enter-drums)----x2-----------------|
D---2-------2-------2----------------------------------------|
A------------------------------------------------------------|
E------------------------------------------------------------|

Guitar 2:CHORUS 0:17-1:03
E------------------------------------------------------------------------|
B---------------------------14----------------------14-------------------|
G---14-16-13---14-16-13--16---11--------13-13-14-14----14-14-13-14-13----|
D----------------------------------11-9-------------------------------11-|
A------------------------------------------------------------------------|
E------------------------------------------------------------------------|

E-------------------------------------------------------------------------|
B----------------------------------------------------------------15-14----|
G---14-----------14-------13--14-13-14--------14--------14------------14--|
D-------11-13------11-13----------------11-13----11-13-----11-13----------|
A-------------------------------------------------------------------------|
E-------------------------------------------------------------------------|

E--------------------------------------------------------------------------|
B------------------------------14----------------------14------------------|
G---14-16-13-14--14-16-13-14-16---11--------13-13-14-14--14-14-13-14-13----|
D------------------------------------11-9-------------------------------11-|
A--------------------------------------------------------------------------|
E--------------------------------------------------------------------------|



E-------------------------------------------------------------------------|
B-------------------------------------1717171717171717-15151515-14141414--|
G---14-----------14-------13--14-13---------------------------------------|
D-------11-13------11-13--------------------------------------------------|
A-------------------------------------------------------------------------|
E-------------------------------------------------------------------------|

E-------------------------------------------------------------------------|
B----------------------------------------------------------------15-14----|
G---14-----------14-------13--14-13-14--------14--------14------------14--|
D-------11-13------11-13----------------11-13----11-13-----11-13----------|
A-------------------------------------------------------------------------|
E-------------------------------------------------------------------------|

E------------------------------------------------------------------------|
B-------------------------------------1717171717171717-15151515-14141414-|
G---14-----------14-------13--14-13--------------------------------------|
D-------11-13------11-13-------------------------------------------------|
A------------------------------------------------------------------------|
E------------------------------------------------------------------------|

BRIDGE (DISTORTION):  1:04-2:41
E-------------------------------------------------------------------------|
B-------------------------------------------------------------------------|
G-------------------------------------------------------------------------|
D-12121212121212121212121212121212---5555555555555555---7777777777777777--|
A-12121212121212121212121212121212---5555555555555555---7777777777777777--|
D-12121212121212121212121212121212---5555555555555555---7777777777777777--|

E------------------------------------------------------------------------|
B------------------------------------------------------------------------|
G------------------------------------------------------------------------|
D---9999999999999999-----------------------------------------------------|
A---9999999999999999-----------------------------------------------------|
D---9999999999999999-----------------------------------------------------|
Добавлено: 21.10.2013
Другие материалы по этой песне:
  • Аккорды и текст

Страница создана 21.10.2013
http://primanota.ru/misc-unsigned-bands/transcends-departure-chords.htm
Привет, Гость.
Предлагаем пройти революционный курс по гитаре.
Подарок от PrimaNota.Ru, забирай!