PrimaNota.ru - самый крупный в мире бесплатный архив песенных текстов, аккордов, табулатур и нот


Misc Unsigned Bands - Tonight Is Glory - Promise - таба, видео

Регистрация Запомнить меня
Войти через:  Facebook Google Twitter Vk Yandex Mail.ru

Misc Unsigned Bands - Tonight Is Glory - Promise - таба, видео

Печатать
Просмотров: 52
 DROP D TUNING
intro:
---------------------------------------------|
---------------------------------------------|
---------------------------------------------|
-0000~-10101010~-8888~---8888888-------------|
-0000~-10101010~-8888~---8888888-------------|
-0000~-10101010~-8888~---8888888-------------|
                                              PM........
------------------|
------------------|
------------------|
-0-10-0-8-10------|
-0-10-0-8-10------|x2
-0-10-0-8-10------|
(LISTEN TO SONG FOR STRUMMING)

bridge:
                 [slide]
------------------------------------------------|
-------------6/2------------6-6----------6/2----|
-------------7/3------------7-7----------7/3----|
---0-0-0-0--------0-0-0-0-------0-0-0-0---------|
---0-0-0-0--------0-0-0-0-------0-0-0-0---------|
---0-0-0-0--------0-0-0-0-------0-0-0-0---------|
pm...........        pm..........         pm........

--------------------|
--------------------|
--------------------|
-0-0-0-0------------|
-0-0-0-0---8-7------|x2
-0-0-0-0-------8-10-|
pm........

verse:
-------------------------------------|
-------------------------------------|
-------------------------------------|
-5-7-8-10-----------     0-3-8-------|
-5-7-8-10-(just once)-0-3-8----------|x2
-5-7-8-10------------    0-3-8-------|
[listen to song for strumming]

GTR1:
------------------------------------|
--6-6-6-6-6-6-6-6-6-6-6-------------|
--9-9-9-9-9-9-9-9-9-9-9-------------|
------------------------------------|
------------------------------------|
------------------------------------|
GTR2:
------------------------------------|
------------------------------------|
------------------------------------|
-0h-8h-10p-0-10p-0--0-0-0-0-0-0-----|
-0h-8h-10p-0-10p-0--0-0-0-0-0-0-----|
-0h-8h-10p-0-10p-0--0-0-0-0-0-0-----|
                                    pm................
BOTH GTRS:

GTR2:
------------------------------------|
------------------------------------|
------------------------------------|
-0h-8h-10p-0-10p-0--0-0-0-0-0-0-----|
-0h-8h-10p-0-10p-0--0-0-0-0-0-0-----|
-0h-8h-10p-0-10p-0--0-0-0-0-0-0-----|
                                   pm................
CHORUS: (LISTEN TO SONG FOR STRUMMING PATTERN)
-------------------------------------------------|
-------------------------------------------------|
----------------------10P-9P----12P-10P-9H-10----|
10-9-8--10-9-8---0~--------10P-------------------|
-8-8-10-8--8-10--0~------------------------------|
-8-8-8--8--8-8---0~------------------------------|

CONT'D
-------------------------------|
-------------------------------|
-------------------------------|
-3-3-3-8-8-8-5-5-5-------------|
-3-3-3-8-8-8-5-5-5-------------|
-3-3-3-8-8-8-5-5-5-------------|


bridge:
                 [slide]
------------------------------------------------|
-------------6/2------------6-6----------6/2----|
-------------7/3------------7-7----------7/3----|
---0-0-0-0--------0-0-0-0-------0-0-0-0---------|
---0-0-0-0--------0-0-0-0-------0-0-0-0---------|
---0-0-0-0--------0-0-0-0-------0-0-0-0---------|
pm...........        pm..........         pm........

--------------------|
--------------------|
--------------------|
-0-0-0-0------------|
-0-0-0-0---8-7------|x2
-0-0-0-0-------8-10-|
pm........

VERSE 2:
------------------ ------------------------------|
------------------ ------------------------------|
------------------ ------------------------------|
-8~-10--5~-7---- ----8-8-8-8-8-8-8-8-8-8---------|
-8~-----5~---(X2)----8-8-8-8-8-8-8-8-8-8---------|
-8~-----5~-----------  8-8-8-8-8-8-8-8-8-8-------|
                                  PM............]
---------------------------------|
---------------------------------|
---------------------------------|
-0-0-0-0-3-3-3-3-8-8-8-8---0~----|
-0-0-0-0-3-3-3-3-8-8-8-8---0~----|
-0-0-0-0-3-3-3-3-8-8-8-8---0~----|
[              X2                  ]


CHORUS: (LISTEN TO SONG FOR STRUMMING PATTERN)
-------------------------------------------------|
-------------------------------------------------|
----------------------10P-9P----12P-10P-9H-10----|
10-9-8--10-9-8---0~--------10P-------------------|
-8-8-10-8--8-10--0~------------------------------|
-8-8-8--8--8-8---0~------------------------------|

CONT'D
-------------------------------|
-------------------------------|
-------------------------------|
-3-3-3-8-8-8-5-5-5-------------|
-3-3-3-8-8-8-5-5-5-(PAUSE)-----|
-3-3-3-8-8-8-5-5-5-------------|

------------------------------------------|
------------------------------------------|
-----------------------------7~-----------|
-000000-XX-0-XX-0---X~--------------------|
-000000-XX-0-XX-0---5~--------------------|
-000000-XX-0-XX-0-------------------------|

-----------------------------------|
-----------------------------------|
--7-7/-9-9/-10-10------------------|
--X-X/-X-X/-X-X--------------------|
--5-5/-7-7/-8--8-------------------|
-----------------------------------|
OUTRO:
--------------------------------------------------|
--------------------------------------------------|
--------------------------------------------------|
--------------------------------------------------|
-0-0-0-3-3-3-8-8-8-10-10-10-0-0-0-3-3-3-8-8-8-5-5-|
-0-0-0-3-3-3-8-8-8-10-10-10-0-0-0-3-3-3-8-8-8-5-5-|
-0-0-0-3-3-3-8-8-8-10-10-10-0-0-0-3-3-3-8-8-8-5-5-|
[                               ONLY ONCE                           ]


-----------------------------------------|
-----------------------------------------|
-----------------------------------------|
-----------------------------------------|
-0-0-0-3-3-3-8-8-8-10-10-10-0~-----------|
-0-0-0-3-3-3-8-8-8-10-10-10-0~-----------|x2
-0-0-0-3-3-3-8-8-8-10-10-10-0~-----------|
Добавлено: 10.09.2013
Другие материалы по этой песне:
  • Аккорды и текст

Страница создана 10.09.2013
http://primanota.ru/misc-unsigned-bands/tonight-is-glory-promise-chords.htm
Привет, Гость.
Предлагаем пройти революционный курс по гитаре.
Подарок от PrimaNota.Ru, забирай!