PrimaNota.ru - самый крупный в мире бесплатный архив песенных текстов, аккордов, табулатур и нот


Misc Unsigned Bands - Told True - Fight To Survive - таба, видео

Регистрация Запомнить меня
Войти через:  Facebook Google Twitter Vk Yandex Mail.ru

Misc Unsigned Bands - Told True - Fight To Survive - таба, видео

Печатать
Просмотров: 91
-------------------------------------------------------------------------------
                             Fight To Survive - Told True
-------------------------------------------------------------------------------
Tabbed by: Kyle

Tuning: Standard

Intro 

e|---------------------------------------------------------------------------|
B|--9---10----10-9--------7---------5----------------------------------------|
G|--9-9-9-----9--9--------8---------6----------------------------------------|
D|--9-9-9--9--9--9--9-9---9---9-9---7---7-7----------------------------------|
A|---------------------------------------------------------------------------|
E|---------------------------------------------------------------------------| x 3
PM    -    -        - -       - -       - -    
e|---------------------------------------------------------------------------|
B|--9---10----10-9--------7---------5-----5/7--7-----------------------------|
G|--9-9-9-----9--9--------8---------6-----6/8--8-----------------------------|
D|--9-9-9--9--9--9--9-9---9---9-9---7-----7/9--9-----------------------------|
A|---------------------------------------------------------------------------|
E|---------------------------------------------------------------------------|
PM    -    -        - -       - -       

Chorus/Main Riff
e|---------------------------------------------------------------------------|
B|--9-----7-----7-----5------------------------------------------------------|
G|--9-----8-----7-----6------------------------------------------------------|
D|--9-----9-----7-----7------------------------------------------------------|
A|---------------------------------------------------------------------------|
E|---------------------------------------------------------------------------|
  "Fight, fight..." 

Verse
e|---------------------------------------------------------------------------|
B|---------------------------------------------------------------------------|
G|---------------------------------------------------------------------------|
D|--2--------9----------7----------------------------------------------------|
A|--2--------9----------7----------------------------------------------------|
E|--0--------7----------5----------------------------------------------------|

With variations. Also solo rhythm. 

Pre Chorus
e|---------------------------------------------------------------------------|
B|--9-----7-----5--------------------9----7----5----5------------------------|
G|--9-----8-----6--------------------9----8----6----5------------------------|
D|--9-----9-----7--------------------9----9----7----7------------------------|
A|---------------------------------------------------------------------------|
E|---------------------------------------------------------------------------|
  "You only get one chance.."        "So make the most...."
e|---------------------------------------------------------------------------|
B|--9------7-----7-----5--------------9-----7-----5--------------------------|
G|--9------8-----7-----6--------------9-----8-----6--------------------------|
D|--9------9-----7-----7--------------9-----9-----7--------------------------|
A|---------------------------------------------------------------------------|
E|---------------------------------------------------------------------------|
   "And I know..."                    "You gotta fight..."

All prechorus chords are clean and are light arpeggios.

Into chorus, etc. 
Добавлено: 10.07.2013
Другие материалы по этой песне:
  • Аккорды и текст

Страница создана 10.07.2013
http://primanota.ru/misc-unsigned-bands/told-true-fight-to-survive-chords.htm
Привет, Гость.
Предлагаем пройти революционный курс по гитаре.
Подарок от PrimaNota.Ru, забирай!