PrimaNota.ru - самый крупный в мире бесплатный архив песенных текстов, аккордов, табулатур и нот


Misc Unsigned Bands - This Is What I Am - Cruskin - таба

Регистрация Запомнить меня
Войти через:  Facebook Google Twitter Vk Yandex Mail.ru

Misc Unsigned Bands - This Is What I Am - Cruskin - таба

Печатать
Просмотров: 104
Уроки эстрадного вокала в Санкт-Петербурге
Ok, so I love this song, so I picked up the guitar and did alot of work.
This song happens to be in Drop C#
I've figured out the song on rhythm, but not lead.

Here's the link to the song

http://www.youtube.com/watch?v=z3Ad4z-lojo&noredirect=1

Have fun!!!

Intro: 

D#|----------------------------------------------------|
A#|----------------------------------------------------|
F#|----------------------5555555555-77-777-7-7-777-7-7-|
C#|-22222222222222222222-5555555555-55-555-4-4-444-4-4-|
G#|-22222222222222222222-3333333333-55-555-4-4-444-4-4-|
C#|-22222222222222222222------------55-555-4-4-444-4-4-|

Verse:  

D#|---------------------|          
A#|---------------------|
F#|---------------------|
C#|---------------------|
G#|-7-9-10-12-10-9-10-7-|
C#|---------------------|
    * * *  *  *  * *  * 
 
|---------------|---------------|---------------|
|---------------|---------------|---------------|
|-5~-5555555555-|-9~-9999999999-|-7~-7777777777-|
|-5~-5555555555-|-9~-9999999999-|-7~-7777777777-|
|-3~-3333333333-|-7~-7777777777-|-5~-5555555555-|
|---------------|---------------|---------------|
     **********      **********      **********
Pre-Chorus:

!Effects Used!
D#|-------------|---------|
A#|-------------|---------|
F#|-7-7-7-7-7-7-|-777-7-7-|
C#|-7-7-7-7-7-7-|-777-7-7-|
G#|-5-5-5-5-5-5-|-555-5-5-|
C#|-------------|---------|
    ! ! ! ! ! !

Chorus: 

D#|----------------------------------------------------|
A#|----------------------------------------------------|
F#|----------------------5555555555-77-777-7-7-777-7-7-|
C#|-22222222222222222222-5555555555-55-555-4-4-444-4-4-|
G#|-22222222222222222222-3333333333-55-555-4-4-444-4-4-|
C#|-22222222222222222222------------55-555-4-4-444-4-4-|

Chorus (Part ii):

D#|----------------------------------|
A#|----------------------------------|
F#|-99999999999999-6666666-5555-9-99-|
C#|-99999999999999-6666666-5555-9-99-|
G#|-77777777777777-4444444-3333-7-77-|
C#|----------------------------------|

Interlude:

D#|----------------------------------------------------------|
A#|----------------------------------------------------------|
F#|-9-9-9-9-9-9-9-9-1111111111111111-12-12-12-12-12-12-12-12-|
C#|-x-x-x-x-x-x-x-x-x-x-x-x-x-x-x-x--x--x--x--x--x--x--x--x--|
G#|-7-7-7-7-7-7-7-7-9-9-9-9-9-9-9-9--10-10-10-10-10-10-10-10-|
C#|----------------------------------------------------------|

|-------------------------------------------------|
|-------------------------------------------------|
|-16-16-16-16-16-16-16-16-14-14-14-14-14-14-14-14-|
|-x--x--x--x--x--x--x--x--x--x--x--x--x--x--x--x--|
|-14-14-14-14-14-14-14-14-12-12-12-12-12-12-12-12-|
|-------------------------------------------------|

Interlude (Part ii):

                        
D#|---------------------------|----|
A#|---------------------------|----|
F#|---------------------------|----|
C#|-2-2-22~-2-2-22222222-(x2)-|----|
G#|-2-2-22~-2-2-22222222------|-7b-|
C#|-2-2-22~-2-2-22222222------|----|
                ********

That's pretty much my part for the tab, I haven't gotten the clean parts but it's an attempt

\,,/ Rock On UG Users \,,/
Добавлено: 06.11.2013
Другие материалы по этой песне:
  • Аккорды и текст

Страница создана 06.11.2013
http://primanota.ru/misc-unsigned-bands/this-is-what-i-am-cruskin-chords.htm
Привет, Гость.
Предлагаем пройти революционный курс по гитаре.
Подарок от PrimaNota.Ru, забирай!