PrimaNota.ru - самый крупный в мире бесплатный архив песенных текстов, аккордов, табулатур и нот


Misc Unsigned Bands - Thechange - Damned To Be Like Me - таба

Регистрация Запомнить меня
Войти через:  Facebook Google Twitter Vk Yandex Mail.ru

Misc Unsigned Bands - Thechange - Damned To Be Like Me - таба

Печатать
Просмотров: 52
Intro 1: 3x
D|--------------------|
A|--------------------|
F|--------------------|
C|--2--5--2--8-8-7-6--|
G|--2--5--2--8-8-7-6--|
C|--2--5--2--8-8-7-6--|

Intro 2: 1x
D|--------------------|
A|--------------------|
F|--------------------|
C|--2--5--2--8888-7-6-|
G|--2--5--2--8888-7-6-|
C|--2--5--2--8888-7-6-|

verse 1:
D|-------------------------------|
A|-------------------------------|
F|-4---------------7------6------|
C|-2---------------5------4------|
G|-2---------------5------4------|
C|-2---------------5------4------|
                          
verse 2:  (im 32takt)
D|-----------------------------------------|
A|-----------------------------------------|
F|-----------------------------------------|
C|--2-2-2-2------5-5-5-5------4-4-4-4------|
G|--2-2-2-2-(8x)-5-5-5-5-(4x)-4-4-4-4-(4x)-|
C|--2-2-2-2------5-5-5-5------4-4-4-4------|

chorus:  
D|----------------------------------------------------------------------------|
A|----------------------------------------------------------------------------| 
F|----------------------------------------------------------------------------|
C|--2-2-2-2-2-2-2-2-5-5-5-5-5-5-5-5-10-10-10-10-10-10-10-10-9-9-9-9-9-10-9-5--|
G|--2-2-2-2-2-2-2-2-5-5-5-5-5-5-5-5-10-10-10-10-10-10-10-10-9-9-9-9-9-10-9-5--|
C|--2-2-2-2-2-2-2-2-5-5-5-5-5-5-5-5-10-10-10-10-10-10-10-10-9-9-9-9-9-10-9-5--|

D|---------------------------------------------------------------------------|
A|---------------------------------------------------------------------------| 
F|---------------------------------------------------------------------------|
C|--2-2-2-2-2-2-2-2-5-5-5-5-5-5-5-5-10-10-10-10-10-10-10-10-9-9-9-9-9-9-9-9--|
G|--2-2-2-2-2-2-2-2-5-5-5-5-5-5-5-5-10-10-10-10-10-10-10-10-9-9-9-9-9-9-9-9--|
C|--2-2-2-2-2-2-2-2-5-5-5-5-5-5-5-5-10-10-10-10-10-10-10-10-9-9-9-9-9-9-9-9--|

(Bridge): (im 32takt) 3x 
D|---------------------------------------------------------------------------|
A|---------------------------------------------------------------------------|
F|---------------------------------------------------------------------------|
C|--2--222-222-222-----------------------------------------------------------|
G|--2--222-222-222-----------------------------------------------------------|
C|--2--222-222-222-----------------------------------------------------------|
 dann
(Bridge): (im 32takt) 1x
D|----------------------------------------------------------------------------|
A|----------------------------------------------------------------------------|
F|----------------------------------------------------------------------------|
C|--2--222-88888888-----------------------------------------------------------|
G|--2--222-88888888-----------------------------------------------------------|
C|--2--222-88888888-----------------------------------------------------------|

(SOLO):
D|------------------------------|
A|------------------------------|
F|------------------------------|
C|2-7-5-7-8-7-5-32-7-5-7-8-7-5-3|
G|2-7-5-7-8-7-5-32-7-5-7-8-7-5-3|
C|2-7-5-7-8-7-5-32-7-5-7-8-7-5-3|

D|-----------------------------|
A|-----------------------------|
F|-----------------------------|
C|2-7-5-7-8-7-5-32-7-5-8888-32-|
G|2-7-5-7-8-7-5-32-7-5-8888-32-|
C|2-7-5-7-8-7-5-32-7-5-8888-32-|

reihenfolge:
                               
Intro 1+2 (3x)
verse 1   (2x)
verse 2   (2x)
Intro 1+2 (1x)
chorus    (2x)
pre-chorus(2x) (wie normaler chorus nur anderes drumming)
Intro 1+2 (2x)
Bridge    (2x)
Solo      (2x)
chorus    (2x)
pre-chorus(2x) 
Добавлено: 24.11.2013
Другие материалы по этой песне:
  • Аккорды и текст

Страница создана 24.11.2013
http://primanota.ru/misc-unsigned-bands/thechange-damned-to-be-like-me-chords.htm
Привет, Гость.
Предлагаем пройти революционный курс по гитаре.
Подарок от PrimaNota.Ru, забирай!