PrimaNota.ru - самый крупный в мире бесплатный архив песенных текстов, аккордов, табулатур и нот


Misc Unsigned Bands - The Werks - Duck Farm - таба

Регистрация Запомнить меня
Войти через:  Facebook Google Twitter Vk Yandex Mail.ru

Misc Unsigned Bands - The Werks - Duck Farm - таба

Печатать
Просмотров: 64
-----------------------------------------------------------------
Duck Farm - The Werks
-----------------------------------------------------------------
Tabbed by: c donnini
Email:cddonnini07@yahoo.com
Tuning:EADGBe

Intro Lick

E|-14po10----------10po9----------9/10--------------------------|
B|-------12------12-----10------10------------------------------|
G|---------11--11---------11--11--------------------------------|
D|-----------12-------------12----------------------------------|
A|--------------------------------------------------------------|
E|--------------------------------------------------------------|

Chord Break 
E|--------------------------------------------------------------|
B|-9--10po9--------7--------------------------------------------|
G|-9-------9-------7--------7-----------------------------------|
D|-9-------9-------7------7-7-----------------------------------|
A|-7---------------5--7/9---------------------------------------|
E|--------------------------------------------------------------|

Intro Lick 

A Major Break
E|-12po9--------------------------------------------------------|
B|------10---10po9-----------------5pbr(7)----------------------|
G|--------9v------9--9ho11--6ho7v-------------------------------|
D|-----------------11------------7------------------------------|
A|--------------------------------------------------------------|
E|--------------------------------------------------------------|
2nd Chord Break
E|------9--9---9----4-------4------------------------------------|
B|------10-10--10---5---7---5------------------------------------|
G|------11-11--11---4---7---6------------------------------------|
D|------12-12--12---6---7---7------------------------------------|
A|------------------7--------------------------------------------|
E|-10-----------------------5------------------------------------|

Chorus 1
"When the moon shines on the disco ball"
E|-4--2--0-------------------------------------------------------|
B|-5--3--2-----------7-9-12-14-----------------------------------|
G|-4--2--2---REPEAT--7-9-12-14-----------------------------------|
D|-6--4--2-----------7-9-12-14-----------------------------------|
A|-7--5--0-----------5-7-10-12-----------------------------------|
E|---------------------------------------------------------------|

Chorus 2 
"The hate is gone there is no wrong you are in paradise"
E|---------------------------------------------------------------|
B|-7--5--7-------------------------------------------------------|
G|-7--6--7-------------------------------------------------------|
D|-7--7--7-------------------------------------------------------|
A|-5--7--9-------------------------------------------------------|
E|----5----------------------------------------------------------|

A Major Break 

No solo

Tablature Notation

h - hammer on 
p - pull off 
b - bend string up
r - release bend
/ - slide up
\ - slide down
v - vibrato (or ~)
t - right hand tap
x - play 'note' with heavy muting
Добавлено: 29.07.2013
Другие материалы по этой песне:
  • Аккорды и текст

Страница создана 29.07.2013
http://primanota.ru/misc-unsigned-bands/the-werks-duck-farm-chords.htm
Привет, Гость.
Предлагаем пройти революционный курс по гитаре.
Подарок от PrimaNota.Ru, забирай!