PrimaNota.ru - самый крупный в мире бесплатный архив песенных текстов, аккордов, табулатур и нот


Misc Unsigned Bands - The Last Ones Out - Holly Would - таба

Регистрация Запомнить меня
Войти через:  Facebook Google Twitter Vk Yandex Mail.ru

Misc Unsigned Bands - The Last Ones Out - Holly Would - таба

Печатать
Просмотров: 45
Holly Would by The Last Ones Out

Intro
E ----------------------------------------|
b -3-3--3-3--3-3--3-3--3-3--3-3--3-3--3-3-|
G -0-0--0-0--0-0--0-0-------0-0--0-0--0-0-|
D -0-0--0-0--0-0--0-0--2-2--0-0--0-0--0-0-|
A ------3-3-------3-3--2-2--3-3-------3-3-|
E -3-3-------3-3-------0-0-------3-3------|

Pre-verse x 4
E ----------------------------------------------|
b ----------------------------------------------|
G ----------------------------------------------|
D ----------------------------------------------|
A -----0-2-3-2-----2-3-2------0-2-3-2-0-0-2-3-5-|
E -3-3---------0-0--------0-0-------------------|

Verse part 1 x 2
E ---------------------|
b ---------------------|
G -----------------5-5-|
D -5-5-------7-7---5-5-|
A -5-5-------7-7---3-3-|
E -3-3-------5-5-------|

Verse part 2 x 2 (palm muted)
E -------------------------|
b -------------------------|
G -------7-----------5-----|
D -5-----7(x8)-7-----5(x8)-|
A -5(x8)-5-----7(x8)-3-----|
E -3-----------5-----------|

pre-verse

verse repeat

Chorus (is the pre-verse)

verse repeat

chorus again

Bridge part 1 x 2
E ------------------------------------------|
b ------------------------------------------|
G -----4-5-4-7-7-4-5-4------5-4-2-4-5-7-5-4-|
D -5-5------------------2-2-----------------|
A ------------------------------------------|
E ------------------------------------------|

Bridge part 2 x 2
E --------------------------------|
b --------------------------------|
G ---7-5-4-2-4-5----7-5-4-2-4-5p4-|
D -5--------------2---------------|
A --------------------------------|
E --------------------------------|

Bridge part 3 x 2
E ------------------------------|
b ------------------------------|
G ---4-5-7-5-4-5----5-4-2-4-5-7-|
D -5--------------2-------------|
A ------------------------------|
E ------------------------------|

pre-verse

Outro x 2
E ----------------------------------------------|
b ----------------------------------------------|
G --------4-4--5-5-4-5-4--9--9-9-4-4-5-5--7-7-7-|
D -5--5-5---------------------------------------|
A --------2-2--3-3-2-3-2--7--7-7-2-2-3-3--5-5-5-|
E -3--3-3---------------------------------------|
Добавлено: 26.09.2013
Другие материалы по этой песне:
  • Аккорды и текст

Страница создана 26.09.2013
http://primanota.ru/misc-unsigned-bands/the-last-ones-out-holly-would-chords.htm
Привет, Гость.
Предлагаем пройти революционный курс по гитаре.
Подарок от PrimaNota.Ru, забирай!