PrimaNota.ru - самый крупный в мире бесплатный архив песенных текстов, аккордов, табулатур и нот


Misc Unsigned Bands - The Last Great Bridge Jumper - Call It What You Will Will Is What Will Call It - таба

Регистрация Запомнить меня
Войти через:  Facebook Google Twitter Vk Yandex Mail.ru

Misc Unsigned Bands - The Last Great Bridge Jumper - Call It What You Will Will Is What Will Call It - таба

Печатать
Просмотров: 39
CALL IT WHAT YOU WILL, WILL IS WHAT WILL CALL IT
BY THE LAST GREAT BRIDGE JUMPER

(www.myspace.com/thelastgreatbridgejumper)

TABBED BY ZACH MARTIN

TUNING: Drop D

LEGEND:
~ - Let ring
\ - slide down
/ - slide up
x - scratch / muted string
. - palm muted
t - 10th fret
e - 11th fret
w - 12th fret
h - 13th fret
f - 14th fret
i - 15th fret
s - 16th fret
v - 17th fret
e - 18th fret
n - 19th fret
ETC.




Intro:
Lead:
e|----------------------------5-3-2-023-
B|------020300203050323--2-3------------
G|----4----------------00-0-00-0-0------
D|-4544---------------------------------
A|-4542---------------------------------
D|-454----------------------------------
        . . .. . . .   .. . .. . .

Rhythm:
e|--------------------------------------
B|--------------------------------------
G|--------------------------------------
D|-4549~9999999999999995555555555555555-
A|-4549~9999999999999995555555555555555-
D|-4549~9999999999999995555555555555555-


Lead:
e|----------------------------5555~---
B|-002030020305-323---2222~---0000~---
G|--------------------0000~---0000~---
D|------------------550000~-22--------
A|------------------55------22--------
D|------------------55------22--------
   .. . .. . . .    ..      ..      

Rhythm:
e|--------------------------------------------
B|--------------------------------------------
G|--------------------------------------------
D|-9999999999999999-55-555-522-222-2----------
A|-9999999999999999-55-555-522-222-2----------
D|-9999999999999999-55-555-522-222-2----------
                    .. ... ... ... .


Lead:
e|---0000--0000000---------------------------
B|---0000--0000000---------------------------
G|---eeee--eeeeeee---777777--999999---------- note: e=11, w=12
D|-99wwww99wwwwwww5-577777777999999----------
A|-9900009900000005-555555577777777----------
D|-99----99-------5-555555577777777----------

Rhythm:
e|--------------------------------------------
B|--------------------------------------------
G|---eeee--eeeeeee---------------------------- note: e=11
D|-99xxxx99xxxxxxx5-5555555-77777777----------
A|-9999999999999995-5555555-77777777----------
D|-99----99-------5-5555555-77777777----------


Lead:
e|---0000--0000000---------------------------
B|---0000--0000000---------------------------
G|---eeee--eeeeeee---777777ffffffff---------- note: e=11, w=12, f=14
D|-99wwww99wwwwwww5-5777777xxxxxxxx----------
A|-9900009900000005-5555555wwwwwwww----------
D|-99----99-------5-5555555------------------

Rhythm:
e|--------------------------------------------
B|--------------------------------------------
G|---eeee--eeeeeee---------------------------- note: e=11
D|-99xxxx99xxxxxxx5-5555555-22222222----------
A|-9999999999999995-5555555-22222222----------
D|-99----99-------5-5555555-22222222----------



Verse 1

Lead: x2
e|----------------------------------
B|----------------------------------
G|-------------f-----------------4~- note: e=11, w=12, f=14
D|---e-w--f-w----ew--7-9----4-5-----
A|----------------------------------
D|-99-9-99-9-99-9--55-5-222----22---
   .. . .. . .. .  .. . ...    ..

Rhythm: Rest x2


Lead:
e|----------------------------------
B|----------------------------------
G|-------------f-----------------4~- note: e=11, w=12, f=14
D|---e-w--f-w----ew--7-9----4-5-----
A|----------------------------------
D|-99-9-99-9-99-9--55-5-222----22---
   .. . .. . .. .  .. . ...    ..

Rhythm:
e|--------------------------------------------
B|--------------------------------------------
G|--------------------------------------------
D|-9999999999999999-55555555-22222222---------
A|-9999999999999999-55555555-22222222---------
D|-9999999999999999-55555555-22222222---------
   ................ ........ ........


Lead: x2
e|----------------------------------
B|----------------------------------
G|-------------f-----777777------44- note: e=11, w=12, f=14
D|---e-w--f-w----ew5577777722445522-
A|-----------------5555555522222222-
D|-99-9-99-9-99-9--5555555522222222-
   .. . .. . .. .  .. . ...    ..

Rhythm:
e|--------------------------------------------
B|--------------------------------------------
G|--------------------------------------------
D|-9999999999999999-55555555-77777777---------
A|-9999999999999999-55555555-77777777---------
D|-9999999999999999-55555555-77777777---------
   ................ ........


Chorus:
Lead:
e|------------------------------------------------------------------
B|------------------------------------------------------------------
G|---------------------------777777-------w-wwwwwww9999999999999999-
D|-----wwweee----------999777------0000000x-xxxxxxxxxxxxxxxxxxxxxxx-
A|-----------wwwwww----------------00000009-99999997777777777777777-
D|-9999------------5555------------0000000--------------------------

Rhythm:
e|------------------------------------------------------------------
B|------------------------------------------------------------------
G|---------------------------------7777777777777777-----------------
D|-9999999999999999555555555555555577777777777777777777777777777777-
A|-9999999999999999555555555555555555555555555555557777777777777777-
D|-99999999999999995555555555555555----------------7777777777777777-


Lead:
e|------------------------------------------------------------------
B|---------------------------------------------------------tttttttt-
G|---------------------------777777-------w-wwwwwww9999999999999999-
D|-----wwweee----------999777------0000000x-xxxxxxxxxxxxxxxxxxxxxxx-
A|-----------wwwwww----------------00000009-99999997777777777777777-
D|-9999------------5555------------0000000--------------------------
   .......................................

Rhythm:
e|------------------------------------------------------------------
B|------------------------------------------------------------------
G|---------------------------------7777777777777777-----------------
D|-9999999999999999555555555555555577777777777777777777777777777777-
A|-9999999999999999555555555555555555555555555555557777777777777777-
D|-99999999999999995555555555555555----------------7777777777777777-



Post Chorus:
Lead:
e|--------------------------------------------
B|--------------------------------------------
G|----e~--------------------------------------
D|-------w~-----xx----------------------------
A|--------------xx----------------------------
D|-9~-----------xx----------------------------

Rhythm: 
e|--------------------------------------------
B|--------------------------------------------
G|--------------------------------------------
D|-9~-----------------------------------------
A|-9~-----------------------------------------
D|-9~-----------------------------------------

Lead:
e|-------------------------------------------
B|-------------------------------------------
G|------44444444444-----77776666666----------
D|-9999-xxxxxxxxxxx5555-xxxxxxxxxxx----------
A|-9999-222222222225555-55554444444----------
D|-9999------------5555----------------------

Rhythm:
e|-------------------------------------------
B|-------------------------------------------
G|-------------------------------------------
D|-9999------------5555----------------------
A|-9999------------5555----------------------
D|-9999------------5555----------------------


Lead:
e|--------------------------------------------
B|--------------------------------------------
G|------66667777777------7777777w~/-----------
D|-2222-xxxxxxxxxxx-5555-xxxxxxxx~/-----------
A|-2222-44445555555-5555-5555555t~/-----------
D|-2222-------------5555----------------------

Rhythm:
e|--------------------------------------------
B|--------------------------------------------
G|--------------------------------------------
D|-2222-------------5555----------------------
A|-2222-------------5555----------------------
D|-2222-------------5555----------------------


SWITCH TO 6/8 TIME SIGNATURE

Pre-Verse:
Lead:
e|-------000000-------0-0-----------------------------
B|-------000000-------0-0-t/------333333-------t-t-t--
G|-------eeeeee-------e-e---------000000-------0-0-0--
D|-99-9-9wwwwww-99-9-9w-w---55-5-5000000-22-2-20-0-0--
A|-99-9-9000000-99-9-90-0---55-5-5-------22-2-2-------
D|-99-9-9-------99-9-9------55-5-5-------22-2-2-------
   .. . .       .. . .      .. . .       .. . .

Rhythm:
e|----------------------------------------------------
B|----------------------------------------------------
G|-------eeeeee-------e-e-e-------777777-------9-9-9--
D|-99-9-9xxxxxx-99-9-9x-x-x-55-5-5xxxxxx-22-2-2x-x-x--
A|-99-9-9999999-99-9-99-9-9-55-5-5555555-22-2-27-7-7--
D|-99-9-9-------99-9-9------55-5-5-------22-2-2-------
   .. . .       .. . .      .. . .       .. . .

Both guitars repeat once

Post-Chorus again with little PM part
e|--------------------------------------------
B|--------------------------------------------
G|----e~--------------------------------------
D|-------t~-7777777---------------------------
A|----------7777777---------------------------
D|-9~-------7777777---------------------------
            .......

Chorus:
Lead:
e|------------------------------------------------------------------
B|------------------------------------------------------------------
G|---------------------------777777-------w-wwwwwww9999999999999999-
D|-----wwweee----------999777------0000000x-xxxxxxxxxxxxxxxxxxxxxxx-
A|-----------wwwwww----------------00000009-99999997777777777777777-
D|-9999------------5555------------0000000--------------------------

Rhythm:
e|------------------------------------------------------------------
B|------------------------------------------------------------------
G|---------------------------------7777777777777777-----------------
D|-9999999999999999555555555555555577777777777777777777777777777777-
A|-9999999999999999555555555555555555555555555555557777777777777777-
D|-99999999999999995555555555555555----------------7777777777777777-


Lead:
e|------------------------------------------------------------------
B|------------------------------------------------------------------
G|-fffwwweee9999999fffwwweee7777777fffwwweeesssssss9999999999999999-
D|-xxxxxxxxxxxxxxxxxxxxxxxxxxxxxxxxxxxxxxxxxxxxxxxxxxxxxxxxxxxxxxxx- note: s=16 f=14 w=12 t=10
A|-wwwttt9997777777wwwttt9995555555wwwttt999fffffff7777777777777777-
D|------------------------------------------------------------------

Rhythm:
e|------------------------------------------------------------------
B|------------------------------------------------------------------
G|---------------------------------7777777777777777-----------------
D|-9999999999999999555555555555555577777777777777777777777777777777-
A|-9999999999999999555555555555555555555555555555557777777777777777-
D|-99999999999999995555555555555555----------------7777777777777777-


Post-Chorus 2:
Lead:
e|----------------------------------
B|----------------------------------
G|-7~-------------------------------
D|-x-----------------------55555555-
A|-5~----------------------55555555-
D|-------------------------55555555-
                           ........
Rhythm:
e|----------------------------------
B|----------------------------------
G|-----------------7~---------------
D|-5~--------------5~---------------
A|-5~--------------5~---------------
D|-5~--------------5~---------------


Chorus again:
Lead:
e|------------------------------------------------------------------
B|------------------------------------------------------------------
G|-------------------------------77-------e-eeeeeeeffffffffffffffff-
D|---wweeww--wwee----997799--9977--000000/x-xxxxxxxxxxxxxxxxxxxxxxx-
A|---------------ww----------------000000/9-9999999wwwwwwwwwwwwwwww-
D|-99------99------55------55------000000/--------------------------

Rhythm:
e|------------------------------------------------------------------
B|------------------------------------------------------------------
G|---------------------------------7777777777777777-----------------
D|-9999999999999999555555555555555577777777777777777777777777777777-
A|-9999999999999999555555555555555555555555555555557777777777777777-
D|-99999999999999995555555555555555----------------7777777777777777-


Lead:
e|-0-0-0000-0-000000-0-00-5~53322--0-0-0000~02233335555555577779999-
B|-0-0-0000-0-000003-3-33--------330-0-000--------------------------
G|-e-e-eeee-e-eeeee0-0-00----------7-7-777--------------------------
D|-w-w-wwww-w-wwwww0-0-00----------7-7-777--------------------------
A|-0-0-0000-0-00000----------------0-0-000--------------------------
D|------------------------------------------------------------------

Rhythm:
e|---------------------------------------------------------------------
B|---------------------------------------------------------------------
G|-----------------------------------7-7-7777-7-7777-------------------
D|-9-9-9999-9-9999--555-55-5-5-5555~-7-7-7777-7-7777--777-7-77-7-77777-
A|-9-9-9999-9-9999--555-55-5-5-5555~-5-5-5555-5-5555--777-7-77-7-77777-
D|-9-9-9999-9-9999--555-55-5-5-5555~------------------777-7-77-7-77777-


Lead:                              |--harmonics---|
e|---9-t--t-w-t-99t--9-t--t-w-t-99t0090t00t090t099t5555555599999999-
B|-00-0-00-0-0-----00-0-00-0-0--------------------------------------
G|------------------------------------------------------------------
D|------------------------------------------------------------------
A|------------------------------------------------------------------
D|------------------------------------------------------------------
   .. . .. . .     .. . .. . .     

Rhythm:
e|------------------------------------------------------------------
B|------------------------------------------------------------------
G|---------------------------------7-7-7-7-7-7-7-7------------------
D|-999-9-9-9-9-9-9-5-5-5-5-5-5-5-5-7-7-7-7-7-7-7-7-7-7-7-7-7-7-7-7--
A|-9-9-9-9-9-9-9-9-5-5-5-5-5-5-5-5-5-5-5-5-5-5-5-5-7-7-7-7-7-7-7-7--
D|-9-9-9-9-9-9-9-9-5-5-5-5-5-5-5-5-----------------7-7-7-7-7-7-7-7--


Final Chorus:

[Drums fade out]

Lead:
e|-t~~~~~~~~~~~~~~~~~~~~~~~~~~~~~fades into feedback----------------
B|------------------------------------------------------------------
G|------------------------------------------------------------------
D|------------------------------------------------------------------
A|------------------------------------------------------------------
D|------------------------------------------------------------------

Rhythm:
e|------------------------------------------------------------------
B|------------------------------------------------------------------
G|---------------------------------7777777777777777-----------------
D|-9999999999999999555555555555555577777777777777777777777777777777-
A|-9999999999999999555555555555555555555555555555557777777777777777-
D|-99999999999999995555555555555555----------------7777777777777777-

[Drums re-enter]

Lead:
e|------------------------------------------------------------------
B|------------------------------------------------------------------
G|-------------------------------77-------e-eeeeeee9999999999999999-
D|---wweeww--wwee----997799--9977--000000/x-xxxxxxxxxxxxxxxxxxxxxxx-
A|---------------ww----------------000000/9-99999997777777777777777-
D|-99------99------55------55------000000/--------------------------

Rhythm:
e|------------------------------------------------------------------
B|------------------------------------------------------------------
G|---------------------------------7777777777777777-----------------
D|-9999999999999999555555555555555577777777777777777777777777777777-
A|-9999999999999999555555555555555555555555555555557777777777777777-
D|-99999999999999995555555555555555----------------7777777777777777-


Ending:
Lead:
e|-------------5---------------5--------------
B|-232353232323-323232353232323-323-----------
G|--------------------------------------------
D|---------------------------------9\---------
A|---------------------------------9\---------
D|---------------------------------9\---------

Rhythm:
e|--------------------------------------------
B|--------------------------------------------
G|--------------------------------------------
D|-99-999-999-999-999-999-999-999-99\---------
A|-99-999-999-999-999-999-999-999-99\---------
D|-99-999-999-999-999-999-999-999-99\---------
Добавлено: 06.12.2013
Другие материалы по этой песне:
  • Аккорды и текст

Страница создана 06.12.2013
http://primanota.ru/misc-unsigned-bands/the-last-great-bridge-jumper-call-it-what-you-will-will-is-what-will-call-it-chords.htm
Привет, Гость.
Предлагаем пройти революционный курс по гитаре.
Подарок от PrimaNota.Ru, забирай!