PrimaNota.ru - самый крупный в мире бесплатный архив песенных текстов, аккордов, табулатур и нот


Misc Unsigned Bands - The Last Great Bridge Jumper - As Far As I Could Throw You - таба, видео

Регистрация Запомнить меня
Войти через:  Facebook Google Twitter Vk Yandex Mail.ru

Misc Unsigned Bands - The Last Great Bridge Jumper - As Far As I Could Throw You - таба, видео

Печатать
Просмотров: 63
Уроки эстрадного вокала в Санкт-Петербурге
AS FAR AS I COULD THROW YOU
BY THE LAST GREAT BRIDGE JUMPER

(www.myspace.com/thelastgreatbridgejumper)

TABBED BY ZACH MARTIN

LEGEND:
~ - Let ring
\ - slide down
/ - slide up
x - scratch / muted string
. - palm muted
b - bend note
t - 10th fret
e - 11th fret
w - 12th fret
h - 13th fret
f - 14th fret
i - 15th fret
s - 16th fret
v - 17th fret
e - 18th fret
n - 19th fret
ETC.

TUING: Drop D

Intro:
Lead:
e|------------------------------------------------------------------|
B|------------------------------------------------------------------|
G|-6666666666666666999999999999999944444444444444446666666666666666-
D|-xxxxxxxxxxxxxxxxxxxxxxxxxxxxxxxxxxxxxxxxxxxxxxxxxxxxxxxxxxxxxxxx-
A|-4444444444444444777777777777777722222222222222224444444444444444-
D|------------------------------------------------------------------

Rhythm:
e|------------------------------------------------------------------|
B|------------------------------------------------------------------|
G|---------------------------------4444444444444444-----------------|
D|-4444444444444444000000000000000044444444444444442222222222222222-
A|-4444444444444444000000000000000022222222222222222222222222222222-
D|-44444444444444440000000000000000----------------2222222222222222-


Lead:
e|------------------------------------------------------------------|
B|------------------------------------------------------------------|
G|-6666666666666666111111111111111113131313141414141616161618181818-
D|-xxxxxxxxxxxxxxxx-x-x-x-x-x-x-x-x-x-x-x-x-x-x-x-x-x-x-x-x-x-x-x-x-|
A|-4444444444444444-9-9-9-9-9-9-9-911111111121212121414141416161616-|
D|------------------------------------------------------------------|
                                             bend these a little^
Rhythm:
e|------------------------------------------------------------------|
B|------------------------------------------------------------------|
G|---------------------------------4444444444444444-----------------|
D|-4444444444444444000000000000000044444444444444442222222222222222-
A|-4444444444444444000000000000000022222222222222222222222222222222-
D|-44444444444444440000000000000000----------------2222222222222222-


Pre-Chorus:
Lead:
e|------------------------------------------------------------------|
B|------------------------------------------------------------------|
G|----6666666666666---6666666666666---6666666666666---666---666-----|
D|-44400000000000004440000000000000444000000000000044400044400044---|
A|-444-------------444-------------444-------------444---444---44---|
D|-444-------------444-------------444-------------444---444---44---|

Rhythm:
e|------------------------------------------------------------------|
B|------------------------------------------------------------------|
G|------------------------------------------------------------------|
D|-444-------------444-------------444-------------444---444---44---|
A|-444-------------444-------------444-------------444---444---44---|
D|-444-------------444-------------444-------------444---444---44---|


Chorus:
Lead:
e|------------------------------------------------------------------|
B|------------------------------------------------------------------|
G|-6666666666666666222/9999999999994444444444444444-----------------|
D|-6666666666666666222/99999999999944444444444444444444444444442222-
A|-4444444444444444000000000000000022222222222222224444444444442222-
D|-4444444444444444----------------44444444444444444444444444442222-

Rhythm:
e|------------------------------------------------------------------|
B|------------------------------------------------------------------|
G|-6666666666666666222222229999999944444444444444446666666666664444-
D|-xxxxxxxxxxxxxxxx2222222299999999xxxxxxxxxxxxxxxxxxxxxxxxxxxxxxxx-
A|-4444444444444444000000000000000022222222222222224444444444442222-
D|------------------------------------------------------------------


Lead:
e|------------------------------------------------------------------|
B|------------------------------------------------------------------|
G|-6666666666666666222/9999999999994444444444444444-----------------|
D|-6666666666666666222/99999999999944444444444444444444444444442----|
A|-4444444444444444000000000000000022222222222222224444444444442----|
D|-4444444444444444----------------44444444444444444444444444442----|

Rhythm:
e|------------------------------------------------------------------|
B|------------------------------------------------------------------|
G|-6666666666666666222222229999999944444444444444446666666666664----|
D|-xxxxxxxxxxxxxxxx2222222299999999xxxxxxxxxxxxxxxxxxxxxxxxxxxxx----|
A|-4444444444444444000000000000000022222222222222224444444444442----|
D|------------------------------------------------------------------|


Verse 2:
Lead:
e|------------------------------------------------------------------|
B|------------------------------------------------------------------|
G|-6666666666666666666666666666666666666666666666666666666666666666-
D|-0000000000000000222222222222222244444444444444442222222222222222-
A|-0000000000000000222222222222222244444444444444442222222222222222-
D|-0000000000000000222222222222222244444444444444442222222222222222-

Rhythm:
e|------------------------------------------------------------------|
B|------------------------------------------------------------------|
G|------------------------------------------------------------------|
D|-0000000000000000222222222222222244444444444444442222222222222222-
A|-0000000000000000222222222222222244444444444444442222222222222222-
D|-0000000000000000222222222222222244444444444444442222222222222222-


Lead:
e|------------------------------------------------------------------|
B|------------------------------------------------------------------|
G|-6666666666666666666666666666666666666666666666666666666666666x---|
D|-0000000000000000222222222222222244444444444444447777777722222x---|
A|-0000000000000000222222222222222244444444444444447777777722222x---|
D|-0000000000000000222222222222222244444444444444447777777722222x---|

Rhythm:
e|------------------------------------------------------------------|
B|------------------------------------------------------------------|
G|---7--7--7-7-7777--9--9--9-9-9999--e--e--e-e-eeee--h--h--fffffx---|
D|-------------xxxx------------xxxx------------xxxx--------xxxxxx---|
A|-55-55-55-5-5555577-77-77-7-7777799-99-99-9-99999ee-ee-eewwwwwx---|
D|------------------------------------------------------------------|
   .. .. .. . .    .. .. .. . .    .. .. .. . .    .. .. ..


Lead:
e|------------------------------------------------------------------|
B|------------------------------------------------------------------|
G|-6666666666666666666666666666666666666666666666666666666666666666-
D|-0000000000000000222222222222222244444444444444442222222222222222-
A|-0000000000000000222222222222222244444444444444442222222222222222-
D|-0000000000000000222222222222222244444444444444442222222222222222-

Rhythm:
e|------------------------------------------------------------------|
B|------------------------------------------------------------------|
G|---7--7--7-7-7777--9--9--9-9-9999--e--e--e-e-eeee--h--h--f-f-ffff-|
D|-------------xxxx------------xxxx------------xxxx------------xxxx-|
A|-55-55-55-5-5555577-77-77-7-7777799-99-99-9-99999ee-ee-ee-w-wwwww-|
D|------------------------------------------------------------------|
   .. .. .. . .    .. .. .. . .    .. .. .. . .    .. .. .. . .


Lead:
e|------------------------------------------------------------------|
B|------------------------------------------------------------------|
G|-6666666666666666666666666666666666666666666666666666666666666666-
D|-0000000000000000222222222222222244444444444444447777777722222222-
A|-0000000000000000222222222222222244444444444444447777777722222222-
D|-0000000000000000222222222222222244444444444444447777777722222222-

Rhythm:
e|------------------------------------------------------------------|
B|------------------------------------------------------------------|
G|---7--7--7-7-7777--9--9--9-9-9999--e--e--e-e-eeee--h--h--f-f-ffff-|
D|-------------xxxx------------xxxx------------xxxx------------xxxx-|
A|-55-55-55-5-5555577-77-77-7-7777799-99-99-9-99999ee-ee-ee-w-wwwww-|
D|------------------------------------------------------------------|
   .. .. .. . .    .. .. .. . .    .. .. .. . .    .. .. .. . .


Bridge:

Lead:
e|------------------------------------------------------------------|
B|------------------------------------------------------------------|
G|------------------------------------------------------------------|
D|---0--0--0--0--0---2--2--2--2--2---4--4--4--4--4---2--2--2--2--2--|
A|--0--0--0--0--0-0-2--2--2--2--2-2-4--4--4--4--4-4-2--2--2--2--2-2-|
D|-0--0--0--0--0---2--2--2--2--2---4--4--4--4--4---2--2--2--2--2----|

Rhythm:
e|------------------------------------------------------------------|
B|------------------------------------------------------------------|
G|-7~---------------------------------------------------------------|
D|-x----------------------------------------------------------------|
A|-5~---------------------------------------------------------------|
D|------------------------------------------------------------------|


Lead:
e|--------------------------------------------------------------------------|
B|--------------------------------------------------------------------------|
G|---------------------------------------------------------6666666666666666-|
D|---0--0--0--0--0---2--2--2--2--2---4--4--4--4--4---2--2--0000000000000000-|
A|--0--0--0--0--0-0-2--2--2--2--2-2-4--4--4--4--4-4-2--2--2-----------------|
D|-0--0--0--0--0---2--2--2--2--2---4--4--4--4--4---2--2--2------------------|
                               bend a little in the middle of this^
Rhythm:
e|------------------------------------------------------------------|
B|------------------------------------------------------------------|
G|------------------------------------------------------------------|
D|-00-000-000-000-022-222-222-222-244-444-444-444-422-222-22--------|
A|-00-000-000-000-022-222-222-222-244-444-444-444-422-222-22--------|
D|-00-000-000-000-022-222-222-222-244-444-444-444-422-222-22--------|
   .. ... ... ... ... ... ... ... ... ... ... ... ... ... .


Chorus:
Lead:
e|------------------------------------------------------------------|
B|------------------------------------------------------------------|
G|-6666666666666666222/9999999999994444444444444444-----------------|
D|-6666666666666666222/99999999999944444444444444444444444444442222-
A|-4444444444444444000000000000000022222222222222224444444444442222-
D|-4444444444444444----------------44444444444444444444444444442222-

Rhythm:
e|------------------------------------------------------------------|
B|------------------------------------------------------------------|
G|-6666666666666666222222229999999944444444444444446666666666664444-
D|-xxxxxxxxxxxxxxxx2222222299999999xxxxxxxxxxxxxxxxxxxxxxxxxxxxxxxx-
A|-4444444444444444000000000000000022222222222222224444444444442222-
D|------------------------------------------------------------------


Lead:
e|------------------------------------------------------------------|
B|------------------------------------------------------------------|
G|-6666666666666666222/9999999999994444444444444444-----------------|
D|-6666666666666666222/99999999999944444444444444444444444444442----|
A|-4444444444444444000000000000000022222222222222224444444444442----|
D|-4444444444444444----------------44444444444444444444444444442----|

Rhythm:
e|------------------------------------------------------------------|
B|------------------------------------------------------------------|
G|-6666666666666666222222229999999944444444444444446666666666664----|
D|-xxxxxxxxxxxxxxxx2222222299999999xxxxxxxxxxxxxxxxxxxxxxxxxxxxx----|
A|-4444444444444444000000000000000022222222222222224444444444442----|
D|------------------------------------------------------------------|


Post-Chorus:
Lead: [tremolo picked]
e|------------------------------------------------------------------|
B|------------------------------------------------------------------|
G|-6666666666666666999999999999999944444444444444446666666666666666-
D|-xxxxxxxxxxxxxxxxxxxxxxxxxxxxxxxxxxxxxxxxxxxxxxxxxxxxxxxxxxxxxxxx-
A|-4444444444444444777777777777777722222222222222224444444444444444-
D|------------------------------------------------------------------

Rhythm:
e|------------------------------------------------------------------|
B|------------------------------------------------------------------|
G|---------------------------------4444444444444444-----------------|
D|-4444444444444444000000000000000044444444444444442222222222222222-
A|-4444444444444444000000000000000022222222222222222222222222222222-
D|-44444444444444440000000000000000----------------2222222222222222-


Lead: [tremolo picked]
e|------------------------------------------------------------------|
B|------------------------------------------------------------------|
G|-6666666666666666111111111111111113131313141414141616161618181818-
D|-xxxxxxxxxxxxxxxx-x-x-x-x-x-x-x-x-x-x-x-x-x-x-x-x-x-x-x-x-x-x-x-x-|
A|-4444444444444444-9-9-9-9-9-9-9-911111111121212121414141416161616-|
D|------------------------------------------------------------------|
                                             bend these a little^
Rhythm:
e|------------------------------------------------------------------|
B|------------------------------------------------------------------|
G|---------------------------------4444444444444444-----------------|
D|-4444444444444444000000000000000044444444444444442222222222222222-
A|-4444444444444444000000000000000022222222222222222222222222222222-
D|-44444444444444440000000000000000----------------2222222222222222-


Outro:
Lead:
e|--------------------------------------------------------------------------|
B|--------------------------------------------------------------------------|
G|----6666666666666---6666666666666---6666666666666---666---666--66---------|
D|-44400000000000004440000000000000444000000000000044400044400044004~----\--|
A|-444-------------444-------------444-------------444---444---44--4~----\--|
D|-444-------------444-------------444-------------444---444---44--4~----\--|

Rhythm:
e|--------------------------------------------------------------------------|
B|--------------------------------------------------------------------------|
G|--------------------------------------------------------------------------|
D|-444-------------444-------------444-------------444---444---44---4~---\--|
A|-444-------------444-------------444-------------444---444---44---4~---\--|
D|-444-------------444-------------444-------------444---444---44---4~---\--|
Добавлено: 16.10.2013
Другие материалы по этой песне:
  • Аккорды и текст

Страница создана 16.10.2013
http://primanota.ru/misc-unsigned-bands/the-last-great-bridge-jumper-as-far-as-i-could-throw-you-chords.htm
Привет, Гость.
Предлагаем пройти революционный курс по гитаре.
Подарок от PrimaNota.Ru, забирай!