PrimaNota.ru - самый крупный в мире бесплатный архив песенных текстов, аккордов, табулатур и нот


Misc Unsigned Bands - The Kong Shu Project - Ib Txoj Kev - таба

Регистрация Запомнить меня
Войти через:  Facebook Google Twitter Vk Yandex Mail.ru

Misc Unsigned Bands - The Kong Shu Project - Ib Txoj Kev - таба

Печатать
Просмотров: 40
The Kong & Shu Project
- Ib Txoj Kev

this tab is almost 100% right. I'm guessing 99.9% right. 
Just one little tiny part i couldn't 
understand but made it up anyways. Enjoy Kong & Shu fans. 

Tuning: 1/2 Step Down


E---------x---------x-------x---------x--------x--------x---------x--------x-----|
B-1p0--0--x------0--x--3----x----3----x--3--3--x--1-----x----0p1--x--1-----x-----|
G------0--x---0-----x--0--0-x-------0-x--0--0--x--0--0--x----0----x--2--2--x-----|
D---------x---------x-------x---------x--------x--------x---------x--------x-----|
A---------x---------x-------x---------x--3--3--x--3-----x--3------x--0-----x-----|
E------3--x--3------x--2----x--2------x--------x--------x---------x--------x-----|

E-----0--x-----0h2--x-----3--3--x-----2-|
B-----3--x-----3----x-----3--3--x-----3-|
G--------x----------x-----------x-------|
D--0-----x--0-------x--0-----0--x--0----|
A--------x----------x-----------x-------|
E--------x----------x-----------x-------|

E---------x---------x-------x---------x--------x--------x---------x--------x-----|
B------0--x-----0---x--3----x----3----x--3--3--x--1-----x----0p1--x--1-----x-----|
G------0--x---0-----x--0--0-x-------0-x--0--0--x--0--0--x----0----x--2--2--x-----|
D---------x---------x-------x---------x--------x--------x---------x--------x-----|
A---------x---------x-------x---------x--3--3--x--3-----x--3------x--0-----x-----|
E------3--x--3------x--2----x--2------x--------x--------x---------x--------x-----|


E--------x-----2-|
B-----1--x-----3-|
G-----0--x-------|
D--------x--0----|
A--3-----x-------|
E--------x-------|

E---------x---------x-------x---------x--------x--------x---------x--------x-----|
B------0--x-----0---x--3----x----3----x--3--3--x--1-----x----0p1--x--1-----x-----|
G------0--x---0-----x--0--0-x-------0-x--0--0--x--0--0--x----0----x--2--2--x-----|
D---------x---------x-------x---------x--------x--------x---------x--------x-----|
A---------x---------x-------x---------x--3--3--x--3-----x--3------x--0-----x-----|
E------3--x--3------x--2----x--2------x--------x--------x---------x--------x-----|

E--------x-----2-|
B-----1--x-----3-|
G-----0--x-------|
D--------x--0----|
A--3-----x-------|
E--------x-------|


E--------x-----7-----x--------x-----0-----x--------x-----0-----x-----2--x-----2--3|
B-----8--x--------8--x-----3--x--------3--x-----1--x--------1--x-----3--x-----3--3|
G-----9--x-----------x-----0--x-----------x-----0--x-----------x--------x---------|
D--------x-----------x--------x-----------x--------x-----------x--0-----x--0-----0|
A--7-----x--7--------x--5-----x--5--------x--3-----x--3--------x--------x---------|
E--------x-----------x--------x-----------x--------x-----------x--------x---------|


E--------x-----7-----x--------x-----0-----x--------x-----0-----x-----2--x-----2--3|
B-----8--x--------8--x-----3--x--------3--x-----1--x--------1--x-----3--x-----3--3|
G-----9--x-----------x-----0--x-----------x-----0--x-----------x--------x---------|
D--------x-----------x--------x-----------x--------x-----------x--0-----x--0-----0|
A--7-----x--7--------x--5-----x--5--------x--3-----x--3--------x--------x---------|
E--------x-----------x--------x-----------x--------x-----------x--------x---------|


E-----x-----------x--------x-----------x--------x--------x--------x-----2--3-----|
B--0--x--------0--x--3-----x-----3-----x--3-----x--3-----x--3-----x-----3--3-----|
G--0--x-----0-----x--0--0--x--------0--x--0--0--x--0--0--x--2--2--x--------------|
D-----x-----------x--------x-----------x--------x--------x--0-----x--0-----0-----|
A-----x-----------x--------x-----------x--3-----x--3-----x--------x--------------|
E--3--x--3--------x--2-----x--2--------x--------x--------x--------x--------------|

E-----x-----------x--------x-----------x--------x--------x--2--------------------|
B--0--x--------0--x--3-----x-----3-----x--3-----x--3-----x--3--------------------|
G--0--x-----0-----x--0--0--x--------0--x--0--0--x--0--0--x--2--------------------|
D-----x-----------x--------x-----------x--------x--------x--0--------------------|
A-----x-----------x--------x-----------x--3-----x--3-----x-----------------------|
E--3--x--3--------x--2-----x--2--------x--------x--------x-----------------------|

REPEAT WHOLE THING WITHOUT THE FIRST 1p0 IN THE BEGINNING. 
DON'T PLAY THE LAST TWO PARTS, INSTEAD PLAY THE TWO BOTTOM 
PARTS LISTED DOWN THERE TO END THE SONG.  

E---------x---------x-------x---------x--------x--------x---------x--------x-----|
B------0--x-----0---x--3----x----3----x--3--3--x--1-----x----0p1--x--1-----x-----|
G------0--x---0-----x--0--0-x-------0-x--0--0--x--0--0--x----0----x--2--2--x-----|
D---------x---------x-------x---------x--------x--------x---------x--------x-----|
A---------x---------x-------x---------x--3--3--x--3-----x--3------x--0-----x-----|
E------3--x--3------x--2----x--2------x--------x--------x---------x--------x-----|

E-----0--x-----0h2--x-----3--3--x-----2--3--2---------3--|
B-----3--x-----3----x-----3--3--x-----3-------3-------3--|
G--------x----------x-----------x----------------2----0--|
D--0-----x--0-------x--0-----0--x--0---------------0--0--|
A--------x----------x-----------x---------------------2--|
E--------x----------x-----------x---------------------3--|
Добавлено: 05.09.2013
Другие материалы по этой песне:
  • Аккорды и текст

Страница создана 05.09.2013
http://primanota.ru/misc-unsigned-bands/the-kong-shu-project-ib-txoj-kev-chords.htm
Привет, Гость.
Предлагаем пройти революционный курс по гитаре.
Подарок от PrimaNota.Ru, забирай!