PrimaNota.ru - самый крупный в мире бесплатный архив песенных текстов, аккордов, табулатур и нот


Misc Unsigned Bands - The Invincibles - Heart Full Of Love - таба

Регистрация Запомнить меня
Войти через:  Facebook Google Twitter Vk Yandex Mail.ru

Misc Unsigned Bands - The Invincibles - Heart Full Of Love - таба

Печатать
Просмотров: 45
-------------------------------------------------------------------------------
                     Heart Full of Love - The Invincibles
-------------------------------------------------------------------------------
Tabbed by: Seany
E-mail: themindsnexus@hotmail.com

Tuning: Standard



Intro:

   D        A        D7               D           A 
e|-9-7-7H9-----------7--/9---\7--7h9--5----------------------------|
B|-7--------5--------9--/10--\9--9----7-----------5----------------|
G|-7--------6-----6--7----------------7----7---7--6----------------|
D|-7--------7---7----9----------------7----7h9----7----------------|
A|----------7--------7----------------5-----------7----------------|
E|----------5-------------------------------------5----------------|

Verse:

          Bm7        Bm7       F#m          F#m    
e|-----------7-5-7----------------------------------------|
B|--------7--7-5-7---7----------2------------2------------|
G|--------7----------7----------2------------2------------|
D|--------7----------7----------4---4-7-8-9--4------------|
A|--------9----------9----------4---4-7-8-9--4------------|
E|-5-6-7--7--------7----7\0-1-2-2---2-5-6-7--2------------|


Chorus:

           D     C#m     F#m 
I've got a heart full of love

  D     C#m     F#m  
a heart full of love

  D     C#m     Bm7 
a heart full of love

    F#m
for you








************************************

| /   slide up
| \   slide down
| h   hammer-on
| p   pull-off
| ~   vibrato
| +   harmonic
| x   Mute note
| b   Bend
| pb  Pre-bend
| br  Bend release
| pbr Pre-bend release
| brb Bend release bend

************************************
Добавлено: 03.06.2013
Другие материалы по этой песне:
  • Аккорды и текст

Страница создана 03.06.2013
http://primanota.ru/misc-unsigned-bands/the-invincibles-heart-full-of-love-chords.htm
Привет, Гость.
Предлагаем пройти революционный курс по гитаре.
Подарок от PrimaNota.Ru, забирай!