PrimaNota.ru - самый крупный в мире бесплатный архив песенных текстов, аккордов, табулатур и нот


Misc Unsigned Bands - The Force Mds - Tender Love - таба, видео

Регистрация Запомнить меня
Войти через:  Facebook Google Twitter Vk Yandex Mail.ru

Misc Unsigned Bands - The Force Mds - Tender Love - таба, видео

Печатать
Просмотров: 40
I haven't been able to find tabs or decent sheet music for this song online, so I 
I would try it by ear. It's played with 2 guitars, but Guitar 1 has the best "solo" quality.

Enjoy!


 Guitar 1
E|----------------11---11-11-|---------11-----------13-11-|-11--|
B|-16-------16-13-11------13-|------11--------11----------|-13--|
G|-------13-13----12-0----13-|---12-----------------------|-12--|
D|----15----15---------13----|----------------------------|-----|
A|---------------------------|----------------------------|-----|
E|----------------11---------|----------------------------|-----|

  Guitar 2
E|---------------------------|----------------------------|-----|
B|---------------------------|----------------------------|-----|
G|---------------------------|----------------------------|-----|
D|---------------------------|---13--------13-------------|--6--|
A|---------------------------|-10----------10-------------|--6--|
E|---------------------------|------11-----11-----11------|--4--|


  Guitar 1
E|----------------11---11-11-|-------------------------11--------------|
B|-16-------16-13-11------13-|-11--13--14--13--14--13------14--13------|
G|-------13-13----12-0----13-|---------13--------------------------13--|
D|----15----15---------13----|---------15------------------------------|
A|---------------------------|-----------------------------------------|
E|----------------11---------|-----------------------------------------|

  Guitar 2
E|---------------------------|-----------------------------------------|
B|---------------------------|-----------------------------------------|
G|---------------------------|-----------------------------------------|
D|---------------------------|---------6----------------------------4--|
A|---------------------------|---------8----------------------------4--|
E|---------------------------|---------6----------------------------2--|


  Guitar 1
E|----------------11---11-11-|---------11---------11----11----|
B|-16-------16-13-11------13-|------11--------11--11----13----|
G|-------13-13----12-0----13-|----12--------------12-13-13-13-|
D|----15----15---------13----|--------------------------------|
A|---------------------------|--------------------------------|
E|----------------11---------|--------------------------------|

  Guitar 2
E|---------------------------|--------------------------------|
B|---------------------------|--------------------------------|
G|---------------------------|--------------------------------|
D|---------------------------|----13--------13-----8----6-----|
A|---------------------------|-10-----------10-----6----6-----|
E|---------------------------|-------11-----11----------4-----|


  Guitar 1
E|----------------11---11-11-|---------11---------11----11----|
B|-16-------16-13-11------13-|------11--------11--11----13----|
G|-------13-13----12-0----13-|----12--------------12-13-13----|
D|----15----15---------13----|--------------------------------|
A|---------------------------|--------------------------------|
E|----------------11---------|--------------------------------|

  Guitar 2
E|---------------------------|--------------------------------|
B|---------------------------|--------------------------------|
G|---------------------------|--------------------------------|
D|---------------------------|----13--------13-----8-----6----|
A|---------------------------|-10-----------10-----6-----6----|
E|---------------------------|-------11-----11-----------4----|

  Guitar 1
E|----------------11---11-11-|---------11---------11----11----|
B|-16-------16-13-11------13-|------11--------11--11----13----|
G|-------13-13----12-0----13-|----12--------------12-13-13-13-|
D|----15----15---------13----|--------------------------------|
A|---------------------------|--------------------------------|
E|----------------11---------|--------------------------------|

  Guitar 2
E|---------------------------|--------------------------------|
B|---------------------------|--------------------------------|
G|---------------------------|--------------------------------|
D|---------------------------|----13--------13-----8----6-----|
A|---------------------------|-10-----------10-----6----6-----|
E|---------------------------|-------11-----11----------4-----|


  Guitar 1
E|----------------11---11-11-|-------------------------11--------------|
B|-16-------16-13-11------13-|-11--13--14--13--14--13------14--13------|
G|-------13-13----12-0----13-|---------13--------------------------13--|
D|----15----15---------13----|---------15------------------------------|
A|---------------------------|-----------------------------------------|
E|----------------11---------|-----------------------------------------|

  Guitar 2
E|---------------------------|-----------------------------------------|
B|---------------------------|-----------------------------------------|
G|---------------------------|-----------------------------------------|
D|---------------------------|---------6----------------------------4--|
A|---------------------------|---------8----------------------------4--|
E|---------------------------|---------6----------------------------2--|
Добавлено: 10.12.2013
Другие материалы по этой песне:
  • Аккорды и текст

Страница создана 10.12.2013
http://primanota.ru/misc-unsigned-bands/the-force-mds-tender-love-chords.htm
Привет, Гость.
Предлагаем пройти революционный курс по гитаре.
Подарок от PrimaNota.Ru, забирай!