PrimaNota.ru - самый крупный в мире бесплатный архив песенных текстов, аккордов, табулатур и нот


Misc Unsigned Bands - The Fire Restart - A Secret Worth Keeping - таба

Регистрация Запомнить меня
Войти через:  Facebook Google Twitter Vk Yandex Mail.ru

Misc Unsigned Bands - The Fire Restart - A Secret Worth Keeping - таба

Печатать
Просмотров: 35
the fire restart
a secret worth keeping

great band. great song. the rythem part is solid but the lead is kinda shaky. -zeb

tuning- drop D

. - palm mute
h - hammer on
p - pull off
/ - slide up
\ - slide down
x - mute string
~ - hold note


Rhythm guitar:

Intro
|-----------------------------------------------------------------|
|-----------------------------------------------------------------|
|-----------------------------------------------------------------|
|-4444444444444444-7777777777777777-0000000000000000-22222222-2~--|
|-4444444444444444-7777777777777777-0000000000000000-22222222-2~--|
|-4444444444444444-7777777777777777-0000000000000000-22222222-2~--|
  ................ ................ ................ ........

pre-verse
|---------------------------------------------------------------------|
|---------------------------------------------------------------------|
|---------------------------------------------------------------------|
|-4444444444444444-0000000000000000-7777777777777777-9999999999999999-|
|-4444444444444444-0000000000000000-7777777777777777-9999999999999999-|
|-4444444444444444-0000000000000000-7777777777777777-9999999999999999-|

verse
|--------------------------------------------------------------------|
|--------------------------------------------------------------------|
|--------------------------------------------------------------------|
|-x4~--7~-9~--2~--4444444444444444-0000000000000000-7777777777777777-|
|-x4~--7~-7~--2~--4444444444444444-0000000000000000-7777777777777777-|
|-x4~--7~-7~--2~--4444444444444444-0000000000000000-7777777777777777-|

------------------|
------------------|
------------------|
-2222222222222222-|
-2222222222222222-|
-2222222222222222-|

chorus (play twice)
|---------------------------------------------------------------------|
|---------------------------------------------------------------------|
|------------------6666666666666666-7777777777777777------------------|
|-4444444444444444-6666666666666666-7777777777777777-7777777722222222-|
|-4444444444444444-4444444444444444-5555555555555555-7777777722222222-|
|-4444444444444444-----------------------------------7777777722222222-|


pre verse 2
(for best effect on this part hit the open D5 then slide up the neck to about the 10th 
then back down to the 4th and hit the next two f#5 chords.)
|----------------------------------|
|----------------------------------|
|----------------------------------|
|-44----44-0/-44--7777777722222222-|
|-44----44-0/-44--7777777722222222-|
|-44----44-0/-44--7777777722222222-|


Verse 2 (play twice)
|---------------------------------------------------------------------|
|---------------------------------------------------------------------|
|---------------------------------------------------------------------|
|-4444444444444444-0000000000000000-7777777777777777-9999999999999999-|
|-4444444444444444-0000000000000000-7777777777777777-9999999999999999-|
|-4444444444444444-0000000000000000-7777777777777777-9999999999999999-|


chorus (play twice)
|---------------------------------------------------------------------|
|---------------------------------------------------------------------|
|------------------6666666666666666-7777777777777777------------------|
|-4444444444444444-6666666666666666-7777777777777777-7777777722222222-|
|-4444444444444444-4444444444444444-5555555555555555-7777777722222222-|
|-4444444444444444-----------------------------------7777777722222222-|

breakdown
|---------------------------------------------|
|---------------------------------------------|
|---------------------------------------------|
|-44-44-0000-44-44-0~-44-44-0-7-4-0-7-4-2-0~--|
|-44-44-0000-44-44-0~-44-44-0-7-4-0-7-4-2-0~--|
|-44-44-0000-44-44-0~-44-44-0-7-4-0-7-4-2-0~--|

bridge (play twice)
|---------------------------------------------------------------------|
|---------------------------------------------------------------------|
|---------------------------------------------------------------------|
|-4444444444444444-0000000000000000-7777777777777777-9999999999999999-|
|-4444444444444444-0000000000000000-7777777777777777-9999999999999999-|
|-4444444444444444-0000000000000000-7777777777777777-9999999999999999-|


chorus (play twice)
|---------------------------------------------------------------------|
|---------------------------------------------------------------------|
|------------------6666666666666666-7777777777777777------------------|
|-4444444444444444-6666666666666666-7777777777777777-7777777722222222-|
|-4444444444444444-4444444444444444-5555555555555555-7777777722222222-|
|-4444444444444444-----------------------------------7777777722222222-|

end on
|-----|
|-----|
|-----|
|-0~~-|
|-0~~-|
|-0~~-|

Lead guitar:

Perverse
|---------------------------------------------------------------|
|---9h10p9-5-5-7-5-3-5--9h10p9-5-5-7-5-3-5--9h10p9-5-5-7-5-3-5--|
|---------------------------------------------------------------|
|---------------------------------------------------------------|
|---------------------------------------------------------------|
|---------------------------------------------------------------|

----------------------------------------------------------------|
--9h10p9-7-5-7-3--9h10p9-5-5-7-5-3-5--9h10p9-5-5-7-5-3-5--------|
----------------------------------------------------------------|
----------------------------------------------------------------|
----------------------------------------------------------------|
----------------------------------------------------------------|

---------------------------------------------------------------|
--10t9t7-12t9t7-10t9t7-12t9t7-10t9t7-12t9t7--/17-17~-----------|
---------------------------------------------------------------|
---------------------------------------------------------------|
---------------------------------------------------------------|
---------------------------------------------------------------|

chorus:
|---------------------------------------------------------------------|
|---------------------------------------------------------------------|
|------------------6666666666666666-7777777777777777------------------|
|-4444444444444444-xxxxxxxxxxxxxxxx-xxxxxxxxxxxxxxxx-7777777722222222-|
|-xxxxxxxxxxxxxxxx-4444444444444444-5555555555555555-xxxxxxxxxxxxxxxx-|
|-4444444444444444-----------------------------------7777777722222222-|

Bridge
|----------------------------------------------------------------------|
|-10-7-9-------10-7-9-------------10-7-9-------10-7-9-12b13r12-10-9-10-|
|--------7-6----------7-6-6h7p6----------7-6---------------------------|
|----------------------------------------------------------------------|
|----------------------------------------------------------------------|
|----------------------------------------------------------------------|

---------------|
--9-7-9-7------|
----------7-6--|
---------------|
---------------|
---------------|
Добавлено: 20.08.2013
Другие материалы по этой песне:
  • Аккорды и текст

Страница создана 20.08.2013
http://primanota.ru/misc-unsigned-bands/the-fire-restart-a-secret-worth-keeping-chords.htm
Привет, Гость.
Предлагаем пройти революционный курс по гитаре.
Подарок от PrimaNota.Ru, забирай!