PrimaNota.ru - самый крупный в мире бесплатный архив песенных текстов, аккордов, табулатур и нот


Misc Unsigned Bands - The Dangerous Summer - The Permanent Rain - таба, видео

Регистрация Запомнить меня
Войти через:  Facebook Google Twitter Vk Yandex Mail.ru

Misc Unsigned Bands - The Dangerous Summer - The Permanent Rain - таба, видео

Печатать
Просмотров: 62
Уроки эстрадного вокала в Санкт-Петербурге
Artist: The Dangerous Summer
Song: The Permanent Rain
Album: If You Could Only Keep Me Alive
Tuning: Dropped-D (DADGBE)
Website: http://www.myspace.com/dangeroussummer
Label: Hopeless/Sub-City Records

This is an amazing song with incredibly touching and deep lyrics by a band not so well 
but will surely race up the scene quickly. This is about 95% correct. I don't have the 
notes in the beginning of the song or the singles crescendos in the outro, but still, good enough.

Intro
|---------------------------------||
|-15---15-15-15---15-15-15---15---||
|--x----x--x--x----x--x--x----x---|| x 12
|-13---13-13-13---13-13-13---13---||
|---------------------------------||
|---------------------------------||

|------------------------------------------||
|-19---15---17---14---15-----21-21-21-21---||
|--x----x----x----x----x------x--x--x--x---|| x 4
|-17---13---15---12---13-----19-19-19-19---||
|------------------------------------------||
|------------------------------------------||

Verse
|----------------------------------------------------------||
|-15---15-15-15---15-15-15---15-15---15-15-15---15-14-15---||
|--x----x--x--x----x--x--x----x--x----x--x--x----x--x--x---|| x4
|-13---13-13-13---13-13-13---13-13---13-13-13---13-12-13---||
|----------------------------------------------------------||
|----------------------------------------------------------||

Chorus (listen for rhythm)
|---------------------------------||
|---------------------------------||
|---------------------------------||
|--------1-------5-------3--------|| x4
|--------1-------5-------3--------||
|--------1-------5-------3--------||

Repeat Verse 4 times
Repeat Chorus 4 Times

Bridge (listen for rhythm)
|------------------------||
|------------------------||
|------------------------||
|-----1---------8--------||
|-----1---------8--------||
|-----1---------8--------||

Repeat Chorus 8 times
Repeat Chorus (Clean Guitar for first 2x than distortion last 2times)

End On:
|--------------||
|--------------||
|-----(3)------||
|------1-------||
|------1-------||
|------1-------||

Lyrics:

So why the sudden change, and what
Добавлено: 10.08.2013
Другие материалы по этой песне:
  • Аккорды и текст

Страница создана 10.08.2013
http://primanota.ru/misc-unsigned-bands/the-dangerous-summer-the-permanent-rain-chords.htm
Привет, Гость.
Предлагаем пройти революционный курс по гитаре.
Подарок от PrimaNota.Ru, забирай!