PrimaNota.ru - самый крупный в мире бесплатный архив песенных текстов, аккордов, табулатур и нот


Misc Unsigned Bands - The Company Band - Spellbinder - таба

Регистрация Запомнить меня
Войти через:  Facebook Google Twitter Vk Yandex Mail.ru

Misc Unsigned Bands - The Company Band - Spellbinder - таба

Печатать
Просмотров: 40
----------------------------------------------------------------------------
                      Spellbinder - The Company Band
----------------------------------------------------------------------------
Tabbed by: Tom Hermsdorfer
Email: chubbs721@hotmail.com

So this is of course a hardcore tab for a hardcore band. i say this confidently. this
caught my attention the most out of the company band's 4 song album. the tab still needs
adjustments, the solo WILL be tabbed soon. as far as the rythm in the tab, i didnt make 
too accurate cause you should listen to this badass song yourself and pick it up on yer own

Tuning:EADgbe

Intro:
1st gtr:
e|---------------------------|
B|---------------------------|
G|-4----------4----2---------|
D|-4----4---4----4---4--2-4--| (4x)
A|-2--2---2------------------|
E|---------------------------|
(let the appropiate notes right out, YOU KNOW DA ONES!!)

e|-----------|
B|-----------|
G|-4---------|
D|-4----4----|
A|-2--2---2--|
E|-----------|

2nd gtr: comes on 3rd time
e|---------------------| |-----|
B|---------------------| |-----|
G|---------------------| |-----|
D|------------------9--| |--9--|
A|------------------9--| |--9--|
E|-777777777777777777--| |--7--|
pm.................. ring out

Pre-Verse
e|---------------|
B|---------------|
G|-7---9-99-7-9--|
D|-7---9-99-7-9--|
A|-5---7-77-5-7--|
E|---------------|

Verse
e|----------|
B|----------|
G|----------|
D|-9--7-9\--| (4x)
A|-9--7-9\--|
E|-7--5-7\--|

Chorus
e|--------------------------------------------------------|
B|--------------------------------------------------------|
G|-----------7------7-------------------------------------|
D|-----------7---5----5----7------7-----9---999-9-9-9/11--|
A|-----7-9-7-5-5--------5--7---5----7---9---999-9-9-9/11--|
E|-7-9---------------------5-5--------5-7---777-7-7-7/9---|

e|----------------------------------------------|
B|----------------------------------------------|
G|-7------7-------------------------------------|
D|-7---5----5----7------7-----9---999-9-9-9/11--|
A|-5-5--------5--7---5----7---9---999-9-9-9/11--|
E|---------------5-5--------5-7---777-7-7-7/9---|


e|-----------------------------------|
B|-----------------------------------|
G|-7------7--------------------------|
D|-7---5----5----7------7---------9--|
A|-5-5--------5--7---5----7---7-9-9--|
E|---------------5-5--------5-----7--|

e|------------------------|
B|------------------------|
G|------------------------|
D|-99999-------77777------|(3x)
A|-99999-9-7-9-77777-5-7--|
E|-77777-------55555------|

e|----|
B|----|
G|----|
D|-9--|
A|-9--|
E|-7--|
ring out

-Coda, now repeat it all over... and then

e|----------------------------------------------------|
B|----------------------------------------------------|
G|----77-6-7-------77-9-9-------77-6-7---------7/9999-|
D|-9--77-7-7--7-9--77-9-9--7-9--77-7-7--7-999--7/9999-|
A|-9----------7-9----------7-9----------7-999---------|
E|-7----------5-7----------5-7----------5-777---------|

Chorus:gtr2

Chorus/Solo:gtr1&2 (will get done tomorrow, its late, getting sleepy)

Chorus

Intro

Outro
e|----------------|
B|----------------|
G|-7---9-99-7-9\--|
D|-7---9-99-7-9\--|
A|-5---7-77-5-7\--|
E|----------------|


| /  slide up
| \  slide down
| h  hammer-on
| p  pull-off
| ~  vibrato
| +  harmonic
| x  Mute note
===============================================================================
Добавлено: 18.10.2013
Другие материалы по этой песне:
  • Аккорды и текст

Страница создана 18.10.2013
http://primanota.ru/misc-unsigned-bands/the-company-band-spellbinder-chords.htm
Привет, Гость.
Предлагаем пройти революционный курс по гитаре.
Подарок от PrimaNota.Ru, забирай!