PrimaNota.ru - самый крупный в мире бесплатный архив песенных текстов, аккордов, табулатур и нот


Misc Unsigned Bands - The Color Fred - Lullaby - таба

Регистрация Запомнить меня
Войти через:  Facebook Google Twitter Vk Yandex Mail.ru

Misc Unsigned Bands - The Color Fred - Lullaby - таба

Печатать
Просмотров: 40
----------------------------------------------------------------------------
                             SONG NAME - Band Name
----------------------------------------------------------------------------
Tabbed by: MellowMode
Email:  two.8@hotmail.com


hey everyone, i dont know if u have heard this song, but its good. you can go to youtube 
look up domestic "disturbance" it will have fred mascherino and other artists. this is 
first tab so yeah, tell me what you think

Tuning:

e|------------------------0-2h4-----------------------------------|
B|--------5-4-2-0---------------5---------5-4-2-0-----------------|
G|------4---------2-1/2/4---------4/6-4-4---------4---------------|
D|----2-----------------------------------------------------------|
A|----------------------------------------------------------------|
E|--4-------0-----0-4-----------------4-----0-----4---------------|


e|------------------------0-2h4-----------------------------------|
B|----5-4-2-0-------------------5-4-5-4-5-4-----------------------|
G|--4---------4/6-4-1/2/4-----------------------------------------|
D|----------------------------------------------------------------|
A|----------------------------------------------------------------|
E|------0---------4-4---------------------------------------------|

its a great song, ill tab the rest later peace

| /  slide up
| \  slide down
| h  hammer-on
| p  pull-off
| ~  vibrato
| +  harmonic
| x  Mute note
============================================================================
Добавлено: 24.01.2014
Другие материалы по этой песне:
  • Аккорды и текст

Страница создана 24.01.2014
http://primanota.ru/misc-unsigned-bands/the-color-fred-lullaby-chords.htm
Привет, Гость.
Предлагаем пройти революционный курс по гитаре.
Подарок от PrimaNota.Ru, забирай!